  0
SECTION
  2
HEADER
  9
$ACADVER
  1
AC1015
  9
$ACADMAINTVER
 70
    20
  9
$DWGCODEPAGE
  3
ANSI_1250
  9
$INSBASE
 10
0.0
 20
0.0
 30
0.0
  9
$EXTMIN
 10
6967.931311208393
 20
2421.698762352184
 30
0.0
  9
$EXTMAX
 10
8167.931311208395
 20
5155.4693396543
 30
0.0
  9
$LIMMIN
 10
0.0
 20
0.0
  9
$LIMMAX
 10
8910.0
 20
6300.0
  9
$ORTHOMODE
 70
     1
  9
$REGENMODE
 70
     1
  9
$FILLMODE
 70
     1
  9
$QTEXTMODE
 70
     0
  9
$MIRRTEXT
 70
     0
  9
$LTSCALE
 40
30.0
  9
$ATTMODE
 70
     1
  9
$TEXTSIZE
 40
0.2
  9
$TRACEWID
 40
0.05
  9
$TEXTSTYLE
  7
Standard
  9
$CLAYER
  8
0
  9
$CELTYPE
  6
ByLayer
  9
$CECOLOR
 62
   256
  9
$CELTSCALE
 40
1.0
  9
$DISPSILH
 70
     0
  9
$DIMSCALE
 40
1.0
  9
$DIMASZ
 40
1.799999999999999
  9
$DIMEXO
 40
0.0625
  9
$DIMDLI
 40
0.38
  9
$DIMRND
 40
0.0
  9
$DIMDLE
 40
0.0
  9
$DIMEXE
 40
0.18
  9
$DIMTP
 40
0.0
  9
$DIMTM
 40
0.0
  9
$DIMTXT
 40
0.25
  9
$DIMCEN
 40
0.09
  9
$DIMTSZ
 40
0.0
  9
$DIMTOL
 70
     0
  9
$DIMLIM
 70
     0
  9
$DIMTIH
 70
     1
  9
$DIMTOH
 70
     1
  9
$DIMSE1
 70
     0
  9
$DIMSE2
 70
     0
  9
$DIMTAD
 70
     0
  9
$DIMZIN
 70
     0
  9
$DIMBLK
  1

  9
$DIMASO
 70
     1
  9
$DIMSHO
 70
     1
  9
$DIMPOST
  1

  9
$DIMAPOST
  1

  9
$DIMALT
 70
     0
  9
$DIMALTD
 70
     2
  9
$DIMALTF
 40
25.4
  9
$DIMLFAC
 40
1.0
  9
$DIMTOFL
 70
     0
  9
$DIMTVP
 40
0.0
  9
$DIMTIX
 70
     0
  9
$DIMSOXD
 70
     0
  9
$DIMSAH
 70
     0
  9
$DIMBLK1
  1

  9
$DIMBLK2
  1

  9
$DIMSTYLE
  2
Standard
  9
$DIMCLRD
 70
     0
  9
$DIMCLRE
 70
     0
  9
$DIMCLRT
 70
     0
  9
$DIMTFAC
 40
1.0
  9
$DIMGAP
 40
0.09
  9
$DIMJUST
 70
     0
  9
$DIMSD1
 70
     0
  9
$DIMSD2
 70
     0
  9
$DIMTOLJ
 70
     1
  9
$DIMTZIN
 70
     0
  9
$DIMALTZ
 70
     0
  9
$DIMALTTZ
 70
     0
  9
$DIMUPT
 70
     0
  9
$DIMDEC
 70
     4
  9
$DIMTDEC
 70
     4
  9
$DIMALTU
 70
     2
  9
$DIMALTTD
 70
     2
  9
$DIMTXSTY
  7
Standard
  9
$DIMAUNIT
 70
     0
  9
$DIMADEC
 70
     0
  9
$DIMALTRND
 40
0.0
  9
$DIMAZIN
 70
     0
  9
$DIMDSEP
 70
    46
  9
$DIMATFIT
 70
     3
  9
$DIMFRAC
 70
     0
  9
$DIMLDRBLK
  1

  9
$DIMLUNIT
 70
     2
  9
$DIMLWD
 70
    -2
  9
$DIMLWE
 70
    -2
  9
$DIMTMOVE
 70
     0
  9
$LUNITS
 70
     2
  9
$LUPREC
 70
     4
  9
$SKETCHINC
 40
0.1
  9
$FILLETRAD
 40
0.0
  9
$AUNITS
 70
     0
  9
$AUPREC
 70
     0
  9
$MENU
  1
.
  9
$ELEVATION
 40
0.0
  9
$PELEVATION
 40
0.0
  9
$THICKNESS
 40
0.0
  9
$LIMCHECK
 70
     0
  9
$CHAMFERA
 40
0.0
  9
$CHAMFERB
 40
0.0
  9
$CHAMFERC
 40
0.0
  9
$CHAMFERD
 40
0.0
  9
$SKPOLY
 70
     0
  9
$TDCREATE
 40
2458683.333915486
  9
$TDUCREATE
 40
2458683.250582153
  9
$TDUPDATE
 40
2458683.395858206
  9
$TDUUPDATE
 40
2458683.312524873
  9
$TDINDWG
 40
0.0076508796
  9
$TDUSRTIMER
 40
0.0076507755
  9
$USRTIMER
 70
     1
  9
$ANGBASE
 50
0.0
  9
$ANGDIR
 70
     0
  9
$PDMODE
 70
     0
  9
$PDSIZE
 40
0.0
  9
$PLINEWID
 40
0.0
  9
$SPLFRAME
 70
     0
  9
$SPLINETYPE
 70
     6
  9
$SPLINESEGS
 70
     8
  9
$HANDSEED
  5
A1D
  9
$SURFTAB1
 70
     6
  9
$SURFTAB2
 70
     6
  9
$SURFTYPE
 70
     6
  9
$SURFU
 70
     6
  9
$SURFV
 70
     6
  9
$UCSBASE
  2

  9
$UCSNAME
  2

  9
$UCSORG
 10
0.0
 20
0.0
 30
0.0
  9
$UCSXDIR
 10
1.0
 20
0.0
 30
0.0
  9
$UCSYDIR
 10
0.0
 20
1.0
 30
0.0
  9
$UCSORTHOREF
  2

  9
$UCSORTHOVIEW
 70
     0
  9
$UCSORGTOP
 10
0.0
 20
0.0
 30
0.0
  9
$UCSORGBOTTOM
 10
0.0
 20
0.0
 30
0.0
  9
$UCSORGLEFT
 10
0.0
 20
0.0
 30
0.0
  9
$UCSORGRIGHT
 10
0.0
 20
0.0
 30
0.0
  9
$UCSORGFRONT
 10
0.0
 20
0.0
 30
0.0
  9
$UCSORGBACK
 10
0.0
 20
0.0
 30
0.0
  9
$PUCSBASE
  2

  9
$PUCSNAME
  2

  9
$PUCSORG
 10
0.0
 20
0.0
 30
0.0
  9
$PUCSXDIR
 10
1.0
 20
0.0
 30
0.0
  9
$PUCSYDIR
 10
0.0
 20
1.0
 30
0.0
  9
$PUCSORTHOREF
  2

  9
$PUCSORTHOVIEW
 70
     0
  9
$PUCSORGTOP
 10
0.0
 20
0.0
 30
0.0
  9
$PUCSORGBOTTOM
 10
0.0
 20
0.0
 30
0.0
  9
$PUCSORGLEFT
 10
0.0
 20
0.0
 30
0.0
  9
$PUCSORGRIGHT
 10
0.0
 20
0.0
 30
0.0
  9
$PUCSORGFRONT
 10
0.0
 20
0.0
 30
0.0
  9
$PUCSORGBACK
 10
0.0
 20
0.0
 30
0.0
  9
$USERI1
 70
     0
  9
$USERI2
 70
     0
  9
$USERI3
 70
     0
  9
$USERI4
 70
     0
  9
$USERI5
 70
     0
  9
$USERR1
 40
0.0
  9
$USERR2
 40
0.0
  9
$USERR3
 40
0.0
  9
$USERR4
 40
0.0
  9
$USERR5
 40
0.0
  9
$WORLDVIEW
 70
     1
  9
$SHADEDGE
 70
     3
  9
$SHADEDIF
 70
    70
  9
$TILEMODE
 70
     1
  9
$MAXACTVP
 70
    64
  9
$PINSBASE
 10
0.0
 20
0.0
 30
0.0
  9
$PLIMCHECK
 70
     0
  9
$PEXTMIN
 10
0.0
 20
0.0
 30
0.0
  9
$PEXTMAX
 10
8910.0
 20
6300.0
 30
0.0
  9
$PLIMMIN
 10
0.0
 20
0.0
  9
$PLIMMAX
 10
8910.0
 20
6300.0
  9
$UNITMODE
 70
     0
  9
$VISRETAIN
 70
     1
  9
$PLINEGEN
 70
     0
  9
$PSLTSCALE
 70
     1
  9
$TREEDEPTH
 70
  3020
  9
$CMLSTYLE
  2
Standard
  9
$CMLJUST
 70
     0
  9
$CMLSCALE
 40
1.0
  9
$PROXYGRAPHICS
 70
     1
  9
$MEASUREMENT
 70
     1
  9
$CELWEIGHT
370
    -1
  9
$ENDCAPS
280
     0
  9
$JOINSTYLE
280
     0
  9
$LWDISPLAY
290
     0
  9
$INSUNITS
 70
     4
  9
$HYPERLINKBASE
  1
WWW.MULLER.COM.PL
  9
$STYLESHEET
  1

  9
$XEDIT
290
     1
  9
$CEPSNTYPE
380
     0
  9
$PSTYLEMODE
290
     1
  9
$FINGERPRINTGUID
  2
{C80FCE1B-878F-40A2-9AEB-73793E9C6AC6}
  9
$VERSIONGUID
  2
{290B9A92-E662-45B3-AC34-D13B2AE87F1C}
  9
$EXTNAMES
290
     1
  9
$PSVPSCALE
 40
0.0
  9
$OLESTARTUP
290
     0
  0
ENDSEC
  0
SECTION
  2
CLASSES
  0
CLASS
  1
ACDBDICTIONARYWDFLT
  2
AcDbDictionaryWithDefault
  3
ObjectDBX Classes
 90
        0
280
     0
281
     0
  0
CLASS
  1
MATERIAL
  2
AcDbMaterial
  3
ObjectDBX Classes
 90
     1153
280
     0
281
     0
  0
CLASS
  1
VISUALSTYLE
  2
AcDbVisualStyle
  3
ObjectDBX Classes
 90
     4095
280
     0
281
     0
  0
CLASS
  1
SCALE
  2
AcDbScale
  3
ObjectDBX Classes
 90
     1153
280
     0
281
     0
  0
CLASS
  1
TABLESTYLE
  2
AcDbTableStyle
  3
ObjectDBX Classes
 90
     4095
280
     0
281
     0
  0
CLASS
  1
MLEADERSTYLE
  2
AcDbMLeaderStyle
  3
ACDB_MLEADERSTYLE_CLASS
 90
     4095
280
     0
281
     0
  0
CLASS
  1
CELLSTYLEMAP
  2
AcDbCellStyleMap
  3
ObjectDBX Classes
 90
     1152
280
     0
281
     0
  0
CLASS
  1
DICTIONARYVAR
  2
AcDbDictionaryVar
  3
ObjectDBX Classes
 90
        0
280
     0
281
     0
  0
CLASS
  1
ACDBPLACEHOLDER
  2
AcDbPlaceHolder
  3
ObjectDBX Classes
 90
        0
280
     0
281
     0
  0
CLASS
  1
LAYOUT
  2
AcDbLayout
  3
ObjectDBX Classes
 90
        0
280
     0
281
     0
  0
CLASS
  1
EXACXREFPANELOBJECT
  2
ExAcXREFPanelObject
  3
EXAC_ESW
 90
     1025
280
     0
281
     0
  0
CLASS
  1
NPOCOLLECTION
  2
AcDbImpNonPersistentObjectsCollection
  3
ObjectDBX Classes
 90
     1153
280
     0
281
     0
  0
CLASS
  1
SORTENTSTABLE
  2
AcDbSortentsTable
  3
ObjectDBX Classes
 90
        0
280
     0
281
     0
  0
ENDSEC
  0
SECTION
  2
TABLES
  0
TABLE
  2
VPORT
  5
8
102
{ACAD_XDICTIONARY
360
403
102
}
330
0
100
AcDbSymbolTable
 70
     1
  0
VPORT
  5
57
330
8
100
AcDbSymbolTableRecord
100
AcDbViewportTableRecord
  2
*Active
 70
     0
 10
0.0
 20
0.0
 11
1.0
 21
1.0
 12
7915.517079320756
 22
3068.589116124523
 13
0.0
 23
0.0
 14
1.0
 24
1.0
 15
0.0
 25
0.0
 16
0.0
 26
0.0
 36
1.0
 17
0.0
 27
0.0
 37
0.0
 40
2622.798064356312
 41
2.430203045685279
 42
50.0
 43
0.0
 44
0.0
 50
0.0
 51
0.0
 71
     0
 72
   100
 73
     1
 74
     1
 75
     0
 76
     0
 77
     0
 78
     0
281
     0
 65
     1
110
0.0
120
0.0
130
0.0
111
1.0
121
0.0
131
0.0
112
0.0
122
1.0
132
0.0
 79
     0
146
0.0
  0
ENDTAB
  0
TABLE
  2
LTYPE
  5
5
330
0
100
AcDbSymbolTable
 70
     2
  0
LTYPE
  5
5B
330
5
100
AcDbSymbolTableRecord
100
AcDbLinetypeTableRecord
  2
ByBlock
 70
     0
  3

 72
    65
 73
     0
 40
0.0
  0
LTYPE
  5
5C
330
5
100
AcDbSymbolTableRecord
100
AcDbLinetypeTableRecord
  2
ByLayer
 70
     0
  3

 72
    65
 73
     0
 40
0.0
  0
LTYPE
  5
5D
330
5
100
AcDbSymbolTableRecord
100
AcDbLinetypeTableRecord
  2
Continuous
 70
     0
  3
Solid line
 72
    65
 73
     0
 40
0.0
  0
ENDTAB
  0
TABLE
  2
LAYER
  5
2
330
0
100
AcDbSymbolTable
 70
     2
  0
LAYER
  5
54
330
2
100
AcDbSymbolTableRecord
100
AcDbLayerTableRecord
  2
0
 70
     0
 62
     7
  6
Continuous
370
    -3
390
F
  0
LAYER
  5
C8
330
2
100
AcDbSymbolTableRecord
100
AcDbLayerTableRecord
  2
Visible (ISO)
 70
     0
 62
     7
  6
Continuous
370
    35
390
F
  0
ENDTAB
  0
TABLE
  2
STYLE
  5
3
330
0
100
AcDbSymbolTable
 70
     1
  0
STYLE
  5
55
330
3
100
AcDbSymbolTableRecord
100
AcDbTextStyleTableRecord
  2
Standard
 70
     0
 40
0.0
 41
1.0
 50
0.0
 71
     0
 42
0.2
  3
tahoma.ttf
  4

1001
ACAD
1000
Tahoma
1071
      256
  0
ENDTAB
  0
TABLE
  2
VIEW
  5
6
330
0
100
AcDbSymbolTable
 70
     0
  0
ENDTAB
  0
TABLE
  2
UCS
  5
7
330
0
100
AcDbSymbolTable
 70
     0
  0
ENDTAB
  0
TABLE
  2
APPID
  5
9
330
0
100
AcDbSymbolTable
 70
     5
  0
APPID
  5
56
330
9
100
AcDbSymbolTableRecord
100
AcDbRegAppTableRecord
  2
ACAD
 70
     0
  0
APPID
  5
5E
330
9
100
AcDbSymbolTableRecord
100
AcDbRegAppTableRecord
  2
AcadAnnotative
 70
     0
  0
APPID
  5
1C6
330
9
100
AcDbSymbolTableRecord
100
AcDbRegAppTableRecord
  2
AcadAnnoPO
 70
     0
  0
APPID
  5
439
330
9
100
AcDbSymbolTableRecord
100
AcDbRegAppTableRecord
  2
ACAD_MLEADERVER
 70
     0
  0
APPID
  5
457
330
9
100
AcDbSymbolTableRecord
100
AcDbRegAppTableRecord
  2
ACAD_EXEMPT_FROM_CAD_STANDARDS
 70
     0
  0
ENDTAB
  0
TABLE
  2
DIMSTYLE
  5
A
330
0
100
AcDbSymbolTable
 70
     2
100
AcDbDimStyleTable
 71
     1
340
58
  0
DIMSTYLE
105
58
330
A
100
AcDbSymbolTableRecord
100
AcDbDimStyleTableRecord
  2
Standard
 70
     0
340
55
  0
ENDTAB
  0
TABLE
  2
BLOCK_RECORD
  5
1
330
0
100
AcDbSymbolTable
 70
     4
  0
BLOCK_RECORD
  5
6C
102
{ACAD_XDICTIONARY
360
4E9
102
}
330
1
100
AcDbSymbolTableRecord
100
AcDbBlockTableRecord
  2
*Model_Space
340
6F
  0
BLOCK_RECORD
  5
68
330
1
100
AcDbSymbolTableRecord
100
AcDbBlockTableRecord
  2
*Paper_Space
340
6B
  0
BLOCK_RECORD
  5
70
330
1
100
AcDbSymbolTableRecord
100
AcDbBlockTableRecord
  2
*Paper_Space0
340
73
  0
BLOCK_RECORD
  5
884
330
1
100
AcDbSymbolTableRecord
100
AcDbBlockTableRecord
  2
2010E_Kosz-do-koszykowki-z-tablica-laminatowa
340
0
310
2800000020000000200000000100080000000000000400000000000000000000000000000000000000000000000080000080000000808000800000008000800080800000C0C0C000C0DCC000F0CAA6000020400000206000002080000020A0000020C0000020E00000400000004020000040400000406000004080000040A0
310
000040C0000040E00000600000006020000060400000606000006080000060A0000060C0000060E00000800000008020000080400000806000008080000080A0000080C0000080E00000A0000000A0200000A0400000A0600000A0800000A0A00000A0C00000A0E00000C0000000C0200000C0400000C0600000C0800000C0
310
A00000C0C00000C0E00000E0000000E0200000E0400000E0600000E0800000E0A00000E0C00000E0E00040000000400020004000400040006000400080004000A0004000C0004000E00040200000402020004020400040206000402080004020A0004020C0004020E000404000004040200040404000404060004040800040
310
40A0004040C0004040E00040600000406020004060400040606000406080004060A0004060C0004060E00040800000408020004080400040806000408080004080A0004080C0004080E00040A0000040A0200040A0400040A0600040A0800040A0A00040A0C00040A0E00040C0000040C0200040C0400040C0600040C08000
310
40C0A00040C0C00040C0E00040E0000040E0200040E0400040E0600040E0800040E0A00040E0C00040E0E00080000000800020008000400080006000800080008000A0008000C0008000E00080200000802020008020400080206000802080008020A0008020C0008020E00080400000804020008040400080406000804080
310
008040A0008040C0008040E00080600000806020008060400080606000806080008060A0008060C0008060E00080800000808020008080400080806000808080008080A0008080C0008080E00080A0000080A0200080A0400080A0600080A0800080A0A00080A0C00080A0E00080C0000080C0200080C0400080C0600080C0
310
800080C0A00080C0C00080C0E00080E0000080E0200080E0400080E0600080E0800080E0A00080E0C00080E0E000C0000000C0002000C0004000C0006000C0008000C000A000C000C000C000E000C0200000C0202000C0204000C0206000C0208000C020A000C020C000C020E000C0400000C0402000C0404000C0406000C0
310
408000C040A000C040C000C040E000C0600000C0602000C0604000C0606000C0608000C060A000C060C000C060E000C0800000C0802000C0804000C0806000C0808000C080A000C080C000C080E000C0A00000C0A02000C0A04000C0A06000C0A08000C0A0A000C0A0C000C0A0E000C0C00000C0C02000C0C04000C0C06000
310
C0C08000C0C0A000F0FBFF00A4A0A000808080000000FF0000FF000000FFFF00FF000000FF00FF00FFFF0000FFFFFF0049494949494949494949494949494949494949494949494949494949494949494949494949494949494949494949494949494949494949494949494949494949494949494949494949494949494949
310
49494949494949494949494949494949494949494949494949FFFFFFFFFFFF49494949494949494949494949494949494949494949494949FFFFFF494949FFFF494949494949494949494949494949494949494949494949FFFF4949494949FF494949494949494949494949494949494949494949494949FF494949494949
310
FFFF4949494949494949494949494949494949494949494949FF494949494949FFFF4949494949494949494949494949494949494949494949FFFF4949494949FFFF494949494949494949494949494949494949494949494949FFFF494949FFFF49494949494949494949494949494949494949494949494949FFFFFFFFFF
310
FF494949494949494949494949494949494949494949494949494949FF4949FFFF49494949494949494949494949494949494949FFFFFFFFFFFFFFFFFFFFFFFFFFFFFFFFFFFFFFFF494949494949494949494949FFFFFFFFFFFFFFFFFFFFFFFFFFFFFFFFFFFFFFFF49494949494949494949494949FFFF494949494949FF49
310
FF494949494949FFFF4949494949494949494949494949FFFF4949494949FF49FF4949494949FFFF49494949494949494949494949494949FF4949494949FF49FF49494949FFFF494949494949494949494949494949494949FF49494949FF49FF494949FFFF4949494949494949494949494949494949494949FF494949FF
310
49FF4949FFFF494949494949494949494949494949494949494949FFFF4949FF49FF4949FFFF49494949494949494949494949494949494949494949FFFF49FF49FF49FFFF494949494949494949494949494949494949494949494949FF49FF49FFFFFF4949494949494949494949494949494949494949494949494949FF
310
FF49FFFF49494949494949494949494949494949494949494949494949494949FFFFFF4949494949494949494949494949494949494949494949494949494949FFFFFF4949494949494949494949494949494949494949494949494949494949FF49FF49494949494949494949494949494949494949494949494949494949
310
49FFFFFF4949494949494949494949494949494949494949494949494949494949FFFF4949494949494949494949494949494949494949494949494949494949494949494949494949494949494949494949494949494949494949494949494949494949494949494949494949494949494949494949494949494949494949
310
4949494949494949494949494949494949494949494949494949494949494949494949494949494949494949494949494949494949494949
102
{BLKREFS
331
9E1
102
}
1001
ACAD
1000
DesignCenter Data
1002
{
1070
     1
1070
     4
1002
}
  0
ENDTAB
  0
ENDSEC
  0
SECTION
  2
BLOCKS
  0
BLOCK
  5
6D
330
6C
100
AcDbEntity
  8
0
100
AcDbBlockBegin
  2
*Model_Space
 70
     0
 10
0.0
 20
0.0
 30
0.0
  3
*Model_Space
  1

  0
ENDBLK
  5
6E
330
6C
100
AcDbEntity
  8
0
100
AcDbBlockEnd
  0
BLOCK
  5
69
330
68
100
AcDbEntity
 67
     1
  8
0
100
AcDbBlockBegin
  2
*Paper_Space
 70
     0
 10
0.0
 20
0.0
 30
0.0
  3
*Paper_Space
  1

  0
ENDBLK
  5
6A
330
68
100
AcDbEntity
 67
     1
  8
0
100
AcDbBlockEnd
  0
BLOCK
  5
71
330
70
100
AcDbEntity
 67
     1
  8
0
100
AcDbBlockBegin
  2
*Paper_Space0
 70
     0
 10
0.0
 20
0.0
 30
0.0
  3
*Paper_Space0
  1

  0
ENDBLK
  5
72
330
70
100
AcDbEntity
 67
     1
  8
0
100
AcDbBlockEnd
  0
BLOCK
  5
885
330
884
100
AcDbEntity
  8
0
100
AcDbBlockBegin
  2
2010E_Kosz-do-koszykowki-z-tablica-laminatowa
 70
     0
 10
0.0
 20
0.0
 30
0.0
  3
2010E_Kosz-do-koszykowki-z-tablica-laminatowa
  1

  0
LINE
  5
887
330
884
100
AcDbEntity
  8
Visible (ISO)
100
AcDbLine
 10
-4.000000000001818
 20
-142.4742691851711
 30
0.0
 11
-4.000000000001818
 21
-146.2315316949639
 31
0.0
  0
LINE
  5
888
330
884
100
AcDbEntity
  8
Visible (ISO)
100
AcDbLine
 10
-3.657626485867695
 20
-146.5857784224822
 30
0.0
 11
3.657626485866785
 21
-146.5857784224822
 31
0.0
  0
LINE
  5
889
330
884
100
AcDbEntity
  8
Visible (ISO)
100
AcDbLine
 10
3.999999999998181
 20
-146.2315316949639
 30
0.0
 11
3.999999999998181
 21
-142.4742691851711
 31
0.0
  0
LINE
  5
88A
330
884
100
AcDbEntity
  8
Visible (ISO)
100
AcDbLine
 10
3.999999999998181
 20
-139.8973597565877
 30
0.0
 11
-4.000000000001818
 21
-139.8973597565877
 31
0.0
  0
LINE
  5
88B
330
884
100
AcDbEntity
  8
Visible (ISO)
100
AcDbLine
 10
-4.000000000001818
 20
-103.9654013756999
 30
0.0
 11
3.999999999998181
 21
-103.9654013756999
 31
0.0
  0
LINE
  5
88C
330
884
100
AcDbEntity
  8
Visible (ISO)
100
AcDbLine
 10
3.999999999998181
 20
-103.9654013756999
 30
0.0
 11
3.999999999998181
 21
-101.6708304463732
 31
0.0
  0
LINE
  5
88D
330
884
100
AcDbEntity
  8
Visible (ISO)
100
AcDbLine
 10
-4.000000000001818
 20
-101.6708304463732
 30
0.0
 11
-4.000000000001818
 21
-103.9654013756999
 31
0.0
  0
LINE
  5
88E
330
884
100
AcDbEntity
  8
Visible (ISO)
100
AcDbLine
 10
3.999999999998181
 20
-101.6708304463732
 30
0.0
 11
-4.000000000001818
 21
-101.6708304463732
 31
0.0
  0
LINE
  5
88F
330
884
100
AcDbEntity
  8
Visible (ISO)
100
AcDbLine
 10
3.999999999998181
 20
-103.9654013756999
 30
0.0
 11
3.999999999998181
 21
-126.467882883966
 31
0.0
  0
LINE
  5
890
330
884
100
AcDbEntity
  8
Visible (ISO)
100
AcDbLine
 10
-4.000000000001818
 20
-103.9654013756999
 30
0.0
 11
-4.000000000001818
 21
-126.467882883966
 31
0.0
  0
LINE
  5
891
330
884
100
AcDbEntity
  8
Visible (ISO)
100
AcDbLine
 10
3.999999999998181
 20
-166.942911514634
 30
0.0
 11
3.999999999998181
 21
-170.7519409736001
 31
0.0
  0
LINE
  5
892
330
884
100
AcDbEntity
  8
Visible (ISO)
100
AcDbLine
 10
-4.000000000001818
 20
-166.9429115146327
 30
0.0
 11
-4.000000000001818
 21
-170.7519409736001
 31
0.0
  0
LINE
  5
893
330
884
100
AcDbEntity
  8
Visible (ISO)
100
AcDbLine
 10
3.999999999998181
 20
-170.7519409736001
 30
0.0
 11
-4.000000000001818
 21
-170.7519409736001
 31
0.0
  0
LINE
  5
894
330
884
100
AcDbEntity
  8
Visible (ISO)
100
AcDbLine
 10
-571.9991724906676
 20
-780.1522587333939
 30
0.0
 11
-571.9991724906676
 21
-790.1522587333947
 31
0.0
  0
LINE
  5
895
330
884
100
AcDbEntity
  8
Visible (ISO)
100
AcDbLine
 10
-571.9991724906676
 20
-780.1522587333939
 30
0.0
 11
-579.9991724906676
 21
-780.1522587333939
 31
0.0
  0
LINE
  5
896
330
884
100
AcDbEntity
  8
Visible (ISO)
100
AcDbLine
 10
-579.9991724906676
 20
-790.1522587333947
 30
0.0
 11
-579.9991724906676
 21
-780.1522587333939
 31
0.0
  0
LINE
  5
897
330
884
100
AcDbEntity
  8
Visible (ISO)
100
AcDbLine
 10
-571.9991724906676
 20
-830.1522587333947
 30
0.0
 11
-571.9991724906676
 21
-790.1522587333947
 31
0.0
  0
LINE
  5
898
330
884
100
AcDbEntity
  8
Visible (ISO)
100
AcDbLine
 10
-579.9991724906676
 20
-790.1522587333947
 30
0.0
 11
-579.9991724906676
 21
-830.1522587333947
 31
0.0
  0
LINE
  5
899
330
884
100
AcDbEntity
  8
Visible (ISO)
100
AcDbLine
 10
580.0000000000054
 20
-780.2499999999986
 30
0.0
 11
580.0000000000054
 21
-790.2499999999986
 31
0.0
  0
LINE
  5
89A
330
884
100
AcDbEntity
  8
Visible (ISO)
100
AcDbLine
 10
580.0000000000054
 20
-780.2499999999986
 30
0.0
 11
572.0000000000072
 21
-780.2499999999986
 31
0.0
  0
LINE
  5
89B
330
884
100
AcDbEntity
  8
Visible (ISO)
100
AcDbLine
 10
572.0000000000072
 20
-790.2499999999986
 30
0.0
 11
572.0000000000072
 21
-780.2499999999986
 31
0.0
  0
LINE
  5
89C
330
884
100
AcDbEntity
  8
Visible (ISO)
100
AcDbLine
 10
580.0000000000054
 20
-830.25
 30
0.0
 11
580.0000000000054
 21
-790.2499999999986
 31
0.0
  0
LINE
  5
89D
330
884
100
AcDbEntity
  8
Visible (ISO)
100
AcDbLine
 10
572.0000000000072
 20
-790.2499999999986
 30
0.0
 11
572.0000000000072
 21
-830.25
 31
0.0
  0
LINE
  5
89E
330
884
100
AcDbEntity
  8
Visible (ISO)
100
AcDbLine
 10
11.99999999999818
 20
-108.9115357298292
 30
0.0
 11
11.99999999999818
 21
-110.9250548037021
 31
0.0
  0
LINE
  5
89F
330
884
100
AcDbEntity
  8
Visible (ISO)
100
AcDbLine
 10
3.999999999998181
 20
-108.9115357298292
 30
0.0
 11
11.99999999999818
 21
-108.9115357298292
 31
0.0
  0
LINE
  5
8A0
330
884
100
AcDbEntity
  8
Visible (ISO)
100
AcDbLine
 10
3.999999999998181
 20
-134.996987810126
 30
0.0
 11
3.999999999998181
 21
-142.4742691851711
 31
0.0
  0
LINE
  5
8A1
330
884
100
AcDbEntity
  8
Visible (ISO)
100
AcDbLine
 10
3.999999999998181
 20
-165.50838809285
 30
0.0
 11
3.999999999998181
 21
-166.9429115146349
 31
0.0
  0
LINE
  5
8A2
330
884
100
AcDbEntity
  8
Visible (ISO)
100
AcDbLine
 10
3.999999999998181
 20
-126.467882883966
 30
0.0
 11
3.999999999998181
 21
-134.9969878101269
 31
0.0
  0
LINE
  5
8A3
330
884
100
AcDbEntity
  8
Visible (ISO)
100
AcDbLine
 10
10.0457323583596
 20
-166.942911514634
 30
0.0
 11
3.999999999998181
 21
-166.942911514634
 31
0.0
  0
LINE
  5
8A4
330
884
100
AcDbEntity
  8
Visible (ISO)
100
AcDbLine
 10
11.99999999999818
 20
-141.4215937358171
 30
0.0
 11
11.99999999999818
 21
-134.9969878101269
 31
0.0
  0
LINE
  5
8A5
330
884
100
AcDbEntity
  8
Visible (ISO)
100
AcDbLine
 10
11.99999999999818
 20
-134.996987810126
 30
0.0
 11
3.999999999998181
 21
-134.996987810126
 31
0.0
  0
LINE
  5
8A6
330
884
100
AcDbEntity
  8
Visible (ISO)
100
AcDbLine
 10
11.99999999999818
 20
-134.996987810126
 30
0.0
 11
11.99999999999818
 21
-110.9250548037021
 31
0.0
  0
LINE
  5
8A7
330
884
100
AcDbEntity
  8
Visible (ISO)
100
AcDbLine
 10
-4.000000000001818
 20
-134.996987810126
 30
0.0
 11
-4.000000000001818
 21
-126.467882883966
 31
0.0
  0
LINE
  5
8A8
330
884
100
AcDbEntity
  8
Visible (ISO)
100
AcDbLine
 10
-4.000000000001818
 20
-166.942911514634
 30
0.0
 11
-4.000000000001818
 21
-165.5083880928491
 31
0.0
  0
LINE
  5
8A9
330
884
100
AcDbEntity
  8
Visible (ISO)
100
AcDbLine
 10
-4.000000000001818
 20
-142.4742691851702
 30
0.0
 11
-4.000000000001818
 21
-134.996987810126
 31
0.0
  0
LINE
  5
8AA
330
884
100
AcDbEntity
  8
Visible (ISO)
100
AcDbLine
 10
-12.0
 20
-110.9250548037012
 30
0.0
 11
-12.0
 21
-134.996987810126
 31
0.0
  0
LINE
  5
8AB
330
884
100
AcDbEntity
  8
Visible (ISO)
100
AcDbLine
 10
-12.0
 20
-134.996987810126
 30
0.0
 11
-4.000000000001818
 21
-134.996987810126
 31
0.0
  0
LINE
  5
8AC
330
884
100
AcDbEntity
  8
Visible (ISO)
100
AcDbLine
 10
-12.0
 20
-134.996987810126
 30
0.0
 11
-12.0
 21
-141.4215937358171
 31
0.0
  0
LINE
  5
8AD
330
884
100
AcDbEntity
  8
Visible (ISO)
100
AcDbLine
 10
-10.04573235836233
 20
-166.942911514634
 30
0.0
 11
-4.000000000001818
 21
-166.942911514634
 31
0.0
  0
LINE
  5
8AE
330
884
100
AcDbEntity
  8
Visible (ISO)
100
AcDbLine
 10
-12.0
 20
-110.9250548037021
 30
0.0
 11
-12.0
 21
-108.9115357298292
 31
0.0
  0
LINE
  5
8AF
330
884
100
AcDbEntity
  8
Visible (ISO)
100
AcDbLine
 10
-12.0
 20
-108.9115357298283
 30
0.0
 11
-4.000000000001818
 21
-108.9115357298283
 31
0.0
  0
LINE
  5
8B0
330
884
100
AcDbEntity
  8
Visible (ISO)
100
AcDbLine
 10
571.6788682716368
 20
-788.2984011678222
 30
0.0
 11
571.6788682716368
 21
-802.302865345554
 31
0.0
  0
LINE
  5
8B1
330
884
100
AcDbEntity
  8
Visible (ISO)
100
AcDbLine
 10
567.6788682716369
 20
-802.302865345554
 30
0.0
 11
567.6788682716369
 21
-788.2984011678209
 31
0.0
  0
LINE
  5
8B2
330
884
100
AcDbEntity
  8
Visible (ISO)
100
AcDbLine
 10
571.6788682716368
 20
-788.2984011678209
 30
0.0
 11
571.6788682716368
 21
-773.2534430388059
 31
0.0
  0
LINE
  5
8B3
330
884
100
AcDbEntity
  8
Visible (ISO)
100
AcDbLine
 10
567.6788682716369
 20
-773.2534430388059
 30
0.0
 11
571.6788682716368
 21
-773.2534430388059
 31
0.0
  0
LINE
  5
8B4
330
884
100
AcDbEntity
  8
Visible (ISO)
100
AcDbLine
 10
567.6788682716369
 20
-788.2984011678209
 30
0.0
 11
567.6788682716369
 21
-773.2534430388059
 31
0.0
  0
LINE
  5
8B5
330
884
100
AcDbEntity
  8
Visible (ISO)
100
AcDbLine
 10
571.6788682716368
 20
-802.302865345554
 30
0.0
 11
571.6788682716368
 21
-822.2690676608713
 31
0.0
  0
LINE
  5
8B6
330
884
100
AcDbEntity
  8
Visible (ISO)
100
AcDbLine
 10
571.6788682716368
 20
-822.2690676608713
 30
0.0
 11
571.6788682716368
 21
-826.2510844092648
 31
0.0
  0
LINE
  5
8B7
330
884
100
AcDbEntity
  8
Visible (ISO)
100
AcDbLine
 10
567.6788682716369
 20
-826.2510844092648
 30
0.0
 11
567.6788682716369
 21
-822.2690676608713
 31
0.0
  0
LINE
  5
8B8
330
884
100
AcDbEntity
  8
Visible (ISO)
100
AcDbLine
 10
567.6788682716369
 20
-822.2690676608713
 30
0.0
 11
567.6788682716369
 21
-802.302865345554
 31
0.0
  0
ELLIPSE
  5
8B9
330
884
100
AcDbEntity
  8
Visible (ISO)
100
AcDbEllipse
 10
569.6788682716378
 20
-776.178066993576
 30
0.0
 11
9.986160135506555
 21
11.19270323684225
 31
0.0
210
0.0
220
0.0
230
1.0
 40
0.6621092760253319
 41
0.6389792583964323
 42
0.8437104566840423
  0
LINE
  5
8BA
330
884
100
AcDbEntity
  8
Visible (ISO)
100
AcDbLine
 10
570.7799104638079
 20
-763.798461324704
 30
0.0
 11
571.6788682716368
 21
-773.2534430388059
 31
0.0
  0
ELLIPSE
  5
8BB
330
884
100
AcDbEntity
  8
Visible (ISO)
100
AcDbEllipse
 10
569.6788682716378
 20
-776.178066993576
 30
0.0
 11
9.986160135506576
 21
11.19270323684227
 31
0.0
210
0.0
220
0.0
230
0.9999999999999998
 40
0.6621092760253318
 41
5.153872013688256
 42
6.922164565576018
  0
ELLIPSE
  5
8BC
330
884
100
AcDbEntity
  8
Visible (ISO)
100
AcDbEllipse
 10
569.6788682716378
 20
-776.178066993576
 30
0.0
 11
-9.986160135506565
 21
-11.19270323684226
 31
0.0
210
0.0
220
0.0
230
1.0
 40
0.6621092760253317
 41
4.241759653423997
 42
6.176227902471452
  0
LINE
  5
8BD
330
884
100
AcDbEntity
  8
Visible (ISO)
100
AcDbLine
 10
567.6019512379916
 20
-765.2096653212707
 30
0.0
 11
567.6788682716369
 21
-773.2534430388059
 31
0.0
  0
ELLIPSE
  5
8BE
330
884
100
AcDbEntity
  8
Visible (ISO)
100
AcDbEllipse
 10
569.6788682716378
 20
-776.178066993576
 30
0.0
 11
9.986160135506551
 21
11.19270323684224
 31
0.0
210
0.0
220
0.0
230
1.0
 40
0.6621092760253317
 41
0.8437104566840432
 42
1.100166999834214
  0
SPLINE
  5
8BF
330
884
100
AcDbEntity
  8
Visible (ISO)
100
AcDbSpline
210
0.0
220
0.0
230
1.0
 70
     8
 71
     3
 72
     8
 73
     4
 74
     0
 42
0.0000000001
 43
0.0000000001
 40
0.0
 40
0.0
 40
0.0
 40
0.0
 40
0.4171247494335212
 40
0.4171247494335212
 40
0.4171247494335212
 40
0.4171247494335212
 10
580.6460008188378
 20
-777.3736108788361
 30
0.0
 10
580.2171585322103
 20
-778.3205659838058
 30
0.0
 10
579.7869726516346
 20
-779.2781219041158
 30
0.0
 10
579.3578736207227
 20
-780.2499999999986
 30
0.0
  0
SPLINE
  5
8C0
330
884
100
AcDbEntity
  8
Visible (ISO)
100
AcDbSpline
210
0.0
220
0.0
230
1.0
 70
     8
 71
     3
 72
     8
 73
     4
 74
     0
 42
0.0000000001
 43
0.0000000001
 40
3.541222831565712
 40
3.541222831565712
 40
3.541222831565712
 40
3.541222831565712
 40
3.747279616837828
 40
3.747279616837828
 40
3.747279616837828
 40
3.747279616837828
 10
571.7310540685921
 20
-806.25
 30
0.0
 10
571.6965453550264
 20
-806.9348496028801
 30
0.0
 10
571.6788682716368
 20
-807.6224737950546
 30
0.0
 10
571.6788682716368
 20
-808.3090687687768
 30
0.0
  0
SPLINE
  5
8C1
330
884
100
AcDbEntity
  8
Visible (ISO)
100
AcDbSpline
210
0.0
220
0.0
230
1.0
 70
     8
 71
     3
 72
     8
 73
     4
 74
     0
 42
0.0000000001
 43
0.0000000001
 40
1.91271844967887
 40
1.91271844967887
 40
1.91271844967887
 40
1.91271844967887
 40
2.49177055887576
 40
2.49177055887576
 40
2.49177055887576
 40
2.49177055887576
 10
562.0702655499326
 20
-790.7499999999999
 30
0.0
 10
561.0720017714375
 20
-789.2838498521064
 30
0.0
 10
560.0197585784581
 20
-787.909006322578
 30
0.0
 10
558.9586452438006
 20
-786.600962420398
 30
0.0
  0
ELLIPSE
  5
8C2
330
884
100
AcDbEntity
  8
Visible (ISO)
100
AcDbEllipse
 10
47.72809375965789
 20
-186.075224418817
 30
0.0
 11
9.986160135506409
 21
11.19270323684241
 31
0.0
210
0.0
220
0.0
230
1.0
 40
0.6621092760253316
 41
0.0
 42
3.141592653589713
  0
LINE
  5
8C3
330
884
100
AcDbEntity
  8
Visible (ISO)
100
AcDbLine
 10
571.6788682716368
 20
-826.2510844092648
 30
0.0
 11
567.6788682716369
 21
-826.2510844092648
 31
0.0
  0
LINE
  5
8C4
330
884
100
AcDbEntity
  8
Visible (ISO)
100
AcDbLine
 10
-571.6780407622991
 20
-826.153343142661
 30
0.0
 11
-571.6780407622991
 21
-822.1713263942669
 31
0.0
  0
LINE
  5
8C5
330
884
100
AcDbEntity
  8
Visible (ISO)
100
AcDbLine
 10
-567.6780407622973
 20
-822.1713263942669
 30
0.0
 11
-567.6780407622973
 21
-826.153343142661
 31
0.0
  0
LINE
  5
8C6
330
884
100
AcDbEntity
  8
Visible (ISO)
100
AcDbLine
 10
-571.6780407622991
 20
-822.1713263942669
 30
0.0
 11
-571.6780407622991
 21
-802.2051240789501
 31
0.0
  0
LINE
  5
8C7
330
884
100
AcDbEntity
  8
Visible (ISO)
100
AcDbLine
 10
-571.6780407622991
 20
-802.2051240789501
 30
0.0
 11
-571.6780407622991
 21
-788.200659901217
 31
0.0
  0
LINE
  5
8C8
330
884
100
AcDbEntity
  8
Visible (ISO)
100
AcDbLine
 10
-571.6780407622991
 20
-788.2006599012161
 30
0.0
 11
-571.6780407622991
 21
-773.1557017722011
 31
0.0
  0
LINE
  5
8C9
330
884
100
AcDbEntity
  8
Visible (ISO)
100
AcDbLine
 10
-567.6780407623
 20
-788.200659901217
 30
0.0
 11
-567.6780407623
 21
-802.2051240789501
 31
0.0
  0
LINE
  5
8CA
330
884
100
AcDbEntity
  8
Visible (ISO)
100
AcDbLine
 10
-567.6780407622973
 20
-788.2006599012161
 30
0.0
 11
-567.6780407622973
 21
-773.1557017722011
 31
0.0
  0
LINE
  5
8CB
330
884
100
AcDbEntity
  8
Visible (ISO)
100
AcDbLine
 10
-571.6780407622991
 20
-773.1557017722011
 30
0.0
 11
-567.6780407622973
 21
-773.1557017722011
 31
0.0
  0
LINE
  5
8CC
330
884
100
AcDbEntity
  8
Visible (ISO)
100
AcDbLine
 10
-567.6780407622973
 20
-802.2051240789501
 30
0.0
 11
-567.6780407622973
 21
-822.171326394266
 31
0.0
  0
LINE
  5
8CD
330
884
100
AcDbEntity
  8
Visible (ISO)
100
AcDbLine
 10
-570.7790829544701
 20
-763.7007200581002
 30
0.0
 11
-571.6780407622991
 21
-773.1557017722011
 31
0.0
  0
ELLIPSE
  5
8CE
330
884
100
AcDbEntity
  8
Visible (ISO)
100
AcDbEllipse
 10
-569.6780407622991
 20
-776.0803257269722
 30
0.0
 11
9.986160135506063
 21
-11.1927032368432
 31
0.0
210
0.0
220
0.0
230
1.0
 40
0.6621092760253317
 41
2.297882196905961
 42
2.502613395193606
  0
ELLIPSE
  5
8CF
330
884
100
AcDbEntity
  8
Visible (ISO)
100
AcDbEllipse
 10
-569.6780407622991
 20
-776.0803257269708
 30
0.0
 11
-9.986160135506583
 21
11.19270323684225
 31
0.0
210
0.0
220
0.0
230
1.0
 40
0.6621092760253317
 41
5.644206048783151
 42
7.412498600670923
  0
ELLIPSE
  5
8D0
330
884
100
AcDbEntity
  8
Visible (ISO)
100
AcDbEllipse
 10
-569.6780407622991
 20
-776.0803257269708
 30
0.0
 11
9.986160135505627
 21
-11.19270323684272
 31
0.0
210
0.0
220
0.0
230
1.0
 40
0.6621092760253317
 41
2.209226315038458
 42
2.297882196905876
  0
LINE
  5
8D1
330
884
100
AcDbEntity
  8
Visible (ISO)
100
AcDbLine
 10
-568.5769985701263
 20
-764.594585958056
 30
0.0
 11
-567.6780407622973
 21
-773.1557017722011
 31
0.0
  0
ELLIPSE
  5
8D2
330
884
100
AcDbEntity
  8
Visible (ISO)
100
AcDbEllipse
 10
-569.6780407622991
 20
-776.0803257269708
 30
0.0
 11
9.986160135505199
 21
-11.19270323684225
 31
0.0
210
0.0
220
0.0
230
1.0
 40
0.6621092760253318
 41
2.12057043317103
 42
2.209226315038459
  0
ELLIPSE
  5
8D3
330
884
100
AcDbEntity
  8
Visible (ISO)
100
AcDbEllipse
 10
-569.6780407622991
 20
-776.0803257269708
 30
0.0
 11
9.986160135505819
 21
-11.19270323684294
 31
0.0
210
0.0
220
0.0
230
1.0
 40
0.6621092760253317
 41
0.1280923598667139
 42
2.12057043317095
  0
SPLINE
  5
8D4
330
884
100
AcDbEntity
  8
Visible (ISO)
100
AcDbSpline
210
0.0
220
0.0
230
1.0
 70
     8
 71
     3
 72
     8
 73
     4
 74
     0
 42
0.0000000001
 43
0.0000000001
 40
0.0
 40
0.0
 40
0.0
 40
0.0
 40
0.2058794990949373
 40
0.2058794990949373
 40
0.2058794990949373
 40
0.2058794990949373
 10
-571.6780407622991
 20
-808.2113275021729
 30
0.0
 10
-571.6780407622991
 20
-807.525323257837
 30
0.0
 10
-571.6965574915175
 20
-806.8378201768677
 30
0.0
 10
-571.732076197476
 20
-806.1522587333948
 30
0.0
  0
SPLINE
  5
8D5
330
884
100
AcDbEntity
  8
Visible (ISO)
100
AcDbSpline
210
0.0
220
0.0
230
1.0
 70
     8
 71
     3
 72
     8
 73
     4
 74
     0
 42
0.0000000001
 43
0.0000000001
 40
3.328914717387772
 40
3.328914717387772
 40
3.328914717387772
 40
3.328914717387772
 40
3.745966844532123
 40
3.745966844532123
 40
3.745966844532123
 40
3.745966844532123
 10
-579.3604081188759
 20
-780.1522587333939
 30
0.0
 10
-579.7877058949998
 20
-779.1804534792482
 30
0.0
 10
-580.2164056852098
 20
-778.2226598503416
 30
0.0
 10
-580.6451733094982
 20
-777.2758696122323
 30
0.0
  0
SPLINE
  5
8D6
330
884
100
AcDbEntity
  8
Visible (ISO)
100
AcDbSpline
210
0.0
220
0.0
230
1.0
 70
     8
 71
     3
 72
     8
 73
     4
 74
     0
 42
0.0000000001
 43
0.0000000001
 40
0.0
 40
0.0
 40
0.0
 40
0.0
 40
0.5767222076338495
 40
0.5767222076338495
 40
0.5767222076338495
 40
0.5767222076338495
 10
-558.8270212202296
 20
-786.3367079735312
 30
0.0
 10
-559.8685602721998
 20
-787.7062763062481
 30
0.0
 10
-560.906423790846
 20
-789.1395145153392
 30
0.0
 10
-561.8895723172881
 20
-790.6522587333947
 30
0.0
  0
ELLIPSE
  5
8D7
330
884
100
AcDbEntity
  8
Visible (ISO)
100
AcDbEllipse
 10
-47.72809375966062
 20
-186.075224418817
 30
0.0
 11
9.986160135506716
 21
-11.19270323684213
 31
0.0
210
0.0
220
0.0
230
1.0
 40
0.6621092760253318
 41
0.0
 42
3.141592668490908
  0
LINE
  5
8D8
330
884
100
AcDbEntity
  8
Visible (ISO)
100
AcDbLine
 10
-567.6780407623
 20
-826.153343142661
 30
0.0
 11
-571.6780407622991
 21
-826.153343142661
 31
0.0
  0
ELLIPSE
  5
8D9
330
884
100
AcDbEntity
  8
Visible (ISO)
100
AcDbEllipse
 10
18.46002965715524
 20
-159.9621783745146
 30
0.0
 11
5.325952072270096
 21
5.969441726315941
 31
0.0
210
0.0
220
0.0
230
1.0
 40
0.6621092760253325
 41
0.0
 42
3.141592653589736
  0
ELLIPSE
  5
8DA
330
884
100
AcDbEntity
  8
Visible (ISO)
100
AcDbEllipse
 10
15.10487223633026
 20
-156.9686978385621
 30
0.0
 11
7.323184099371506
 21
8.207982373684316
 31
0.0
210
0.0
220
0.0
230
1.0
 40
0.6621092760253321
 41
5.526728922511181
 42
10.18123434543769
  0
ELLIPSE
  5
8DB
330
884
100
AcDbEntity
  8
Visible (ISO)
100
AcDbEllipse
 10
15.10487223633026
 20
-156.9686978385621
 30
0.0
 11
4.965607475476471
 21
5.565559745636391
 31
0.0
210
0.0
220
0.0
230
1.0
 40
0.6621092760253321
 41
0.0
 42
3.141592653589771
  0
ELLIPSE
  5
8DC
330
884
100
AcDbEntity
  8
Visible (ISO)
100
AcDbEllipse
 10
17.77389996459715
 20
-159.3500116049131
 30
0.0
 11
-4.965607475476126
 21
-5.565559745636695
 31
0.0
210
0.0
220
0.0
230
1.0
 40
0.6621092760253321
 41
3.541944784014035
 42
5.882833176754725
  0
LINE
  5
8DD
330
884
100
AcDbEntity
  8
Visible (ISO)
100
AcDbLine
 10
23.78598172942566
 20
-153.9927366481988
 30
0.0
 11
46.78521803128387
 21
-174.5127175540378
 31
0.0
  0
LINE
  5
8DE
330
884
100
AcDbEntity
  8
Visible (ISO)
100
AcDbLine
 10
13.13407758488665
 20
-165.93162010083
 30
0.0
 11
36.13331388674396
 21
-186.45160100667
 31
0.0
  0
LINE
  5
8DF
330
884
100
AcDbEntity
  8
Visible (ISO)
100
AcDbLine
 10
21.9806460936361
 20
-148.3615348354092
 30
0.0
 11
22.42805633570424
 21
-148.7607154648781
 31
0.0
  0
LINE
  5
8E0
330
884
100
AcDbEntity
  8
Visible (ISO)
100
AcDbLine
 10
7.334277894893602
 20
-164.7774995827781
 30
0.0
 11
7.781688136959019
 21
-165.176680212247
 31
0.0
  0
LINE
  5
8E1
330
884
100
AcDbEntity
  8
Visible (ISO)
100
AcDbLine
 10
20.07047971180782
 20
-151.4031380929259
 30
0.0
 11
21.99652686936588
 21
-153.1215625822492
 31
0.0
  0
LINE
  5
8E2
330
884
100
AcDbEntity
  8
Visible (ISO)
100
AcDbLine
 10
10.13926476085544
 20
-162.5342575841982
 30
0.0
 11
12.06531191841441
 21
-164.2526820735206
 31
0.0
  0
LINE
  5
8E3
330
884
100
AcDbEntity
  8
Visible (ISO)
100
AcDbLine
 10
20.91064104844372
 20
-152.9431690569358
 30
0.0
 11
21.82439801655346
 21
-153.0904035687877
 31
0.0
  0
LINE
  5
8E4
330
884
100
AcDbEntity
  8
Visible (ISO)
100
AcDbLine
 10
11.76474872938434
 20
-163.1940820379291
 30
0.0
 11
12.01480585889294
 21
-164.0852056153489
 31
0.0
  0
SPLINE
  5
8E5
330
884
100
AcDbEntity
  8
Visible (ISO)
100
AcDbSpline
210
0.0
220
0.0
230
1.0
 70
    12
 71
     2
 72
     6
 73
     3
 74
     0
 42
0.0000000001
 43
0.0000000001
 40
0.0
 40
0.0
 40
0.0
 40
0.7028516625302875
 40
0.7028516625302875
 40
0.7028516625302875
 10
20.06067930058816
 20
-142.9427949873129
 30
0.0
 41
1.0
 10
16.79565877626101
 20
-142.0074932101656
 30
0.0
 41
1.037954849302054
 10
14.48711271766569
 20
-141.6605911614901
 30
0.0
 41
1.0
  0
SPLINE
  5
8E6
330
884
100
AcDbEntity
  8
Visible (ISO)
100
AcDbSpline
210
0.0
220
0.0
230
1.0
 70
    12
 71
     2
 72
     6
 73
     3
 74
     0
 42
0.0000000001
 43
0.0000000001
 40
0.0
 40
0.0
 40
0.0
 40
0.7028516625302878
 40
0.7028516625302878
 40
0.7028516625302878
 10
10.11222842992538
 20
-141.4478549252248
 30
0.0
 41
1.0
 10
6.847207905600043
 20
-143.477784105743
 30
0.0
 41
1.037954849302045
 10
4.538661847003822
 20
-145.6988473944952
 30
0.0
 41
1.0
  0
SPLINE
  5
8E7
330
884
100
AcDbEntity
  8
Visible (ISO)
100
AcDbSpline
210
0.0
220
0.0
230
1.0
 70
    12
 71
     2
 72
     6
 73
     3
 74
     0
 42
0.0000000001
 43
0.0000000001
 40
0.7028516625302875
 40
0.7028516625302875
 40
0.7028516625302875
 40
1.405703325060574
 40
1.405703325060574
 40
1.405703325060574
 10
14.48711271766569
 20
-141.6605911614901
 30
0.0
 41
1.0
 10
12.17856665906947
 20
-141.3136891128147
 30
0.0
 41
1.03795484930206
 10
10.11222842992538
 20
-141.4478549252248
 30
0.0
 41
1.0
  0
SPLINE
  5
8E8
330
884
100
AcDbEntity
  8
Visible (ISO)
100
AcDbSpline
210
0.0
220
0.0
230
1.0
 70
    12
 71
     2
 72
     6
 73
     3
 74
     0
 42
0.0000000001
 43
0.0000000001
 40
1.30481421494258
 40
1.30481421494258
 40
1.30481421494258
 40
1.405703325060575
 40
1.405703325060575
 40
1.405703325060575
 10
-0.000000000001819
 20
-161.0768680246579
 30
0.0
 41
1.009332192326942
 10
0.0749651811484
 20
-161.5670635470128
 30
0.0
 41
1.005448135324829
 10
0.1637775592662365
 20
-162.0857000435067
 30
0.0
 41
1.0
  0
SPLINE
  5
8E9
330
884
100
AcDbEntity
  8
Visible (ISO)
100
AcDbSpline
210
0.0
220
0.0
230
1.0
 70
    12
 71
     2
 72
     6
 73
     3
 74
     0
 42
0.0000000001
 43
0.0000000001
 40
0.0
 40
0.0
 40
0.0
 40
0.1008891101180072
 40
0.1008891101180072
 40
0.1008891101180072
 10
0.1637775592662365
 20
-151.0193074533222
 30
0.0
 41
1.0
 10
0.0749651811484
 20
-151.3794666613312
 30
0.0
 41
1.005448135324828
 10
-0.000000000001819
 20
-151.7358939084611
 30
0.0
 41
1.009332192326939
  0
SPLINE
  5
8EA
330
884
100
AcDbEntity
  8
Visible (ISO)
100
AcDbSpline
210
0.0
220
0.0
230
1.0
 70
    12
 71
     2
 72
     6
 73
     3
 74
     0
 42
0.0000000001
 43
0.0000000001
 40
0.7028516625302878
 40
0.7028516625302878
 40
0.7028516625302878
 40
1.405703325060574
 40
1.405703325060574
 40
1.405703325060574
 10
4.538661847003822
 20
-145.6988473944952
 30
0.0
 41
1.0
 10
2.230115788407601
 20
-147.919910683247
 30
0.0
 41
1.037954849302045
 10
0.1637775592662365
 20
-151.0193074533222
 30
0.0
 41
1.0
  0
LINE
  5
8EB
330
884
100
AcDbEntity
  8
Visible (ISO)
100
AcDbLine
 10
4.709011123604796
 20
-166.14096973719
 30
0.0
 11
0.1637775592662365
 21
-162.0857000435058
 31
0.0
  0
LINE
  5
8EC
330
884
100
AcDbEntity
  8
Visible (ISO)
100
AcDbLine
 10
4.709011123604796
 20
-155.0745771470051
 30
0.0
 11
4.709011123604796
 21
-166.14096973719
 31
0.0
  0
LINE
  5
8ED
330
884
100
AcDbEntity
  8
Visible (ISO)
100
AcDbLine
 10
4.709011123604796
 20
-155.0745771470051
 30
0.0
 11
0.1637775592662365
 21
-151.0193074533222
 31
0.0
  0
LINE
  5
8EE
330
884
100
AcDbEntity
  8
Visible (ISO)
100
AcDbLine
 10
4.709011123604796
 20
-166.14096973719
 30
0.0
 11
14.65746199426394
 21
-167.6359097992767
 31
0.0
  0
LINE
  5
8EF
330
884
100
AcDbEntity
  8
Visible (ISO)
100
AcDbLine
 10
14.65746199426485
 20
-167.6359097992767
 30
0.0
 11
14.84358107015578
 21
-167.4568437393818
 31
0.0
  0
LINE
  5
8F0
330
884
100
AcDbEntity
  8
Visible (ISO)
100
AcDbLine
 10
24.60591286492399
 20
-154.7242814275
 30
0.0
 11
24.60591286492399
 21
-146.9980646809949
 31
0.0
  0
LINE
  5
8F1
330
884
100
AcDbEntity
  8
Visible (ISO)
100
AcDbLine
 10
24.60591286492399
 20
-146.9980646809949
 30
0.0
 11
14.65746199426394
 21
-145.5031246189069
 31
0.0
  0
LINE
  5
8F2
330
884
100
AcDbEntity
  8
Visible (ISO)
100
AcDbLine
 10
14.65746199426485
 20
-145.5031246189069
 30
0.0
 11
4.709011123604796
 21
-155.0745771470051
 31
0.0
  0
ELLIPSE
  5
8F3
330
884
100
AcDbEntity
  8
Visible (ISO)
100
AcDbEllipse
 10
14.65746199426485
 20
-156.5695172090932
 30
0.0
 11
7.323184099371432
 21
8.207982373684387
 31
0.0
210
0.0
220
0.0
230
1.0
 40
0.6621092760253321
 41
0.0000000000000094
 42
3.141592653589801
  0
LINE
  5
8F4
330
884
100
AcDbEntity
  8
Visible (ISO)
100
AcDbLine
 10
24.60591286492399
 20
-146.9980646809949
 30
0.0
 11
20.06067930058816
 21
-142.942794987312
 31
0.0
  0
LINE
  5
8F5
330
884
100
AcDbEntity
  8
Visible (ISO)
100
AcDbLine
 10
14.65746199426485
 20
-145.5031246189069
 30
0.0
 11
10.11222842992538
 21
-141.4478549252248
 31
0.0
  0
ELLIPSE
  5
8F6
330
884
100
AcDbEntity
  8
Visible (ISO)
100
AcDbEllipse
 10
-18.46002965715979
 20
-159.9621783745137
 30
0.0
 11
5.325952072270148
 21
-5.969441726315894
 31
0.0
210
0.0
220
0.0
230
1.0
 40
0.6621092760253319
 41
0.0000000000000267
 42
3.141592653589818
  0
ELLIPSE
  5
8F7
330
884
100
AcDbEntity
  8
Visible (ISO)
100
AcDbEllipse
 10
-15.10487223633481
 20
-156.9686978385621
 30
0.0
 11
7.323184099371498
 21
-8.207982373684311
 31
0.0
210
0.0
220
0.0
230
1.0
 40
0.6621092760253321
 41
5.526728922511153
 42
10.18123434543772
  0
ELLIPSE
  5
8F8
330
884
100
AcDbEntity
  8
Visible (ISO)
100
AcDbEllipse
 10
-15.10487223633481
 20
-156.9686978385621
 30
0.0
 11
4.965607475476463
 21
-5.565559745636393
 31
0.0
210
0.0
220
0.0
230
1.0
 40
0.6621092760253321
 41
0.0000000000000262
 42
3.141592653589818
  0
ELLIPSE
  5
8F9
330
884
100
AcDbEntity
  8
Visible (ISO)
100
AcDbEllipse
 10
-17.77389996459987
 20
-159.3500116049122
 30
0.0
 11
-4.965607475476891
 21
5.565559745636011
 31
0.0
210
0.0
220
0.0
230
1.0
 40
0.6621092760253319
 41
3.541944784013978
 42
5.882833176754741
  0
LINE
  5
8FA
330
884
100
AcDbEntity
  8
Visible (ISO)
100
AcDbLine
 10
-13.13407758488756
 20
-165.93162010083
 30
0.0
 11
-36.13331388674669
 21
-186.4516010066691
 31
0.0
  0
LINE
  5
8FB
330
884
100
AcDbEntity
  8
Visible (ISO)
100
AcDbLine
 10
-23.78598172942929
 20
-153.9927366481988
 30
0.0
 11
-46.78521803128842
 21
-174.5127175540378
 31
0.0
  0
LINE
  5
8FC
330
884
100
AcDbEntity
  8
Visible (ISO)
100
AcDbLine
 10
-7.334277894895421
 20
-164.7774995827772
 30
0.0
 11
-7.781688136962657
 21
-165.1766802122442
 31
0.0
  0
LINE
  5
8FD
330
884
100
AcDbEntity
  8
Visible (ISO)
100
AcDbLine
 10
-21.98064609364065
 20
-148.3615348354083
 30
0.0
 11
-22.42805633570606
 21
-148.7607154648772
 31
0.0
  0
LINE
  5
8FE
330
884
100
AcDbEntity
  8
Visible (ISO)
100
AcDbLine
 10
-10.13926476085817
 20
-162.5342575841982
 30
0.0
 11
-12.06531191841532
 21
-164.2526820735206
 31
0.0
  0
LINE
  5
8FF
330
884
100
AcDbEntity
  8
Visible (ISO)
100
AcDbLine
 10
-20.07047971181146
 20
-151.403138092925
 30
0.0
 11
-21.99652686936952
 21
-153.1215625822483
 31
0.0
  0
LINE
  5
900
330
884
100
AcDbEntity
  8
Visible (ISO)
100
AcDbLine
 10
-11.76474872938706
 20
-163.1940820379282
 30
0.0
 11
-12.01480585889567
 21
-164.0852056153471
 31
0.0
  0
LINE
  5
901
330
884
100
AcDbEntity
  8
Visible (ISO)
100
AcDbLine
 10
-20.91064104844736
 20
-152.9431690569349
 30
0.0
 11
-21.82439801655801
 21
-153.0904035687877
 31
0.0
  0
SPLINE
  5
902
330
884
100
AcDbEntity
  8
Visible (ISO)
100
AcDbSpline
210
0.0
220
0.0
230
1.0
 70
    12
 71
     2
 72
     6
 73
     3
 74
     0
 42
0.0000000001
 43
0.0000000001
 40
0.702851662530288
 40
0.702851662530288
 40
0.702851662530288
 40
1.405703325060575
 40
1.405703325060575
 40
1.405703325060575
 10
-14.48711271766751
 20
-141.6605911614892
 30
0.0
 41
1.0
 10
-16.79565877626282
 20
-142.0074932101638
 30
0.0
 41
1.037954849302044
 10
-20.06067930059089
 20
-142.942794987312
 30
0.0
 41
1.0
  0
SPLINE
  5
903
330
884
100
AcDbEntity
  8
Visible (ISO)
100
AcDbSpline
210
0.0
220
0.0
230
1.0
 70
    12
 71
     2
 72
     6
 73
     3
 74
     0
 42
0.0000000001
 43
0.0000000001
 40
0.7028516625302889
 40
0.7028516625302889
 40
0.7028516625302889
 40
1.405703325060577
 40
1.405703325060577
 40
1.405703325060577
 10
-4.53866184700746
 20
-145.6988473944939
 30
0.0
 41
1.0
 10
-6.847207905601862
 20
-143.477784105743
 30
0.0
 41
1.03795484930205
 10
-10.11222842992902
 20
-141.4478549252239
 30
0.0
 41
1.0
  0
SPLINE
  5
904
330
884
100
AcDbEntity
  8
Visible (ISO)
100
AcDbSpline
210
0.0
220
0.0
230
1.0
 70
    12
 71
     2
 72
     6
 73
     3
 74
     0
 42
0.0000000001
 43
0.0000000001
 40
0.0
 40
0.0
 40
0.0
 40
0.702851662530288
 40
0.702851662530288
 40
0.702851662530288
 10
-10.11222842992902
 20
-141.4478549252239
 30
0.0
 41
1.0
 10
-12.17856665907129
 20
-141.3136891128147
 30
0.0
 41
1.037954849302045
 10
-14.48711271766751
 20
-141.6605911614892
 30
0.0
 41
1.0
  0
SPLINE
  5
905
330
884
100
AcDbEntity
  8
Visible (ISO)
100
AcDbSpline
210
0.0
220
0.0
230
1.0
 70
    12
 71
     2
 72
     6
 73
     3
 74
     0
 42
0.0000000001
 43
0.0000000001
 40
1.304814214942607
 40
1.304814214942607
 40
1.304814214942607
 40
1.405703325060575
 40
1.405703325060575
 40
1.405703325060575
 10
-0.000000000001819
 20
-151.7358939084602
 30
0.0
 41
1.00933219232694
 10
-0.074965181150219
 20
-151.3794666613298
 30
0.0
 41
1.005448135324828
 10
-0.1637775592698745
 20
-151.0193074533222
 30
0.0
 41
1.0
  0
SPLINE
  5
906
330
884
100
AcDbEntity
  8
Visible (ISO)
100
AcDbSpline
210
0.0
220
0.0
230
1.0
 70
    12
 71
     2
 72
     6
 73
     3
 74
     0
 42
0.0000000001
 43
0.0000000001
 40
0.0
 40
0.0
 40
0.0
 40
0.7028516625302889
 40
0.7028516625302889
 40
0.7028516625302889
 10
-0.1637775592698745
 20
-151.0193074533222
 30
0.0
 41
1.0
 10
-2.230115788411239
 20
-147.919910683247
 30
0.0
 41
1.03795484930204
 10
-4.53866184700746
 20
-145.6988473944939
 30
0.0
 41
1.0
  0
SPLINE
  5
907
330
884
100
AcDbEntity
  8
Visible (ISO)
100
AcDbSpline
210
0.0
220
0.0
230
1.0
 70
    12
 71
     2
 72
     6
 73
     3
 74
     0
 42
0.0000000001
 43
0.0000000001
 40
0.0
 40
0.0
 40
0.0
 40
0.1008891101179719
 40
0.1008891101179719
 40
0.1008891101179719
 10
-0.1637775592698745
 20
-162.0857000435058
 30
0.0
 41
1.0
 10
-0.074965181150219
 20
-161.5670635470119
 30
0.0
 41
1.005448135324824
 10
-0.000000000001819
 20
-161.0768680246579
 30
0.0
 41
1.009332192326936
  0
LINE
  5
908
330
884
100
AcDbEntity
  8
Visible (ISO)
100
AcDbLine
 10
-4.709011123608433
 20
-155.0745771470042
 30
0.0
 11
-0.1637775592698745
 21
-151.0193074533222
 31
0.0
  0
LINE
  5
909
330
884
100
AcDbEntity
  8
Visible (ISO)
100
AcDbLine
 10
-4.709011123608433
 20
-166.14096973719
 30
0.0
 11
-4.709011123608433
 21
-155.0745771470051
 31
0.0
  0
LINE
  5
90A
330
884
100
AcDbEntity
  8
Visible (ISO)
100
AcDbLine
 10
-4.709011123608433
 20
-166.14096973719
 30
0.0
 11
-0.1637775592698745
 21
-162.0857000435058
 31
0.0
  0
LINE
  5
90B
330
884
100
AcDbEntity
  8
Visible (ISO)
100
AcDbLine
 10
-14.6574619942694
 20
-145.5031246189069
 30
0.0
 11
-10.11222842992902
 21
-141.4478549252248
 31
0.0
  0
LINE
  5
90C
330
884
100
AcDbEntity
  8
Visible (ISO)
100
AcDbLine
 10
-4.709011123608433
 20
-155.0745771470042
 30
0.0
 11
-14.6574619942694
 21
-145.5031246189069
 31
0.0
  0
LINE
  5
90D
330
884
100
AcDbEntity
  8
Visible (ISO)
100
AcDbLine
 10
-24.60591286492945
 20
-146.9980646809949
 30
0.0
 11
-20.06067930059089
 21
-142.942794987312
 31
0.0
  0
LINE
  5
90E
330
884
100
AcDbEntity
  8
Visible (ISO)
100
AcDbLine
 10
-14.6574619942694
 20
-145.5031246189069
 30
0.0
 11
-24.60591286492672
 21
-146.9980646809949
 31
0.0
  0
LINE
  5
90F
330
884
100
AcDbEntity
  8
Visible (ISO)
100
AcDbLine
 10
-24.60591286492945
 20
-146.9980646809949
 30
0.0
 11
-24.60591286492945
 21
-154.7242814275
 31
0.0
  0
LINE
  5
910
330
884
100
AcDbEntity
  8
Visible (ISO)
100
AcDbLine
 10
-14.84358107016032
 20
-167.4568437393818
 30
0.0
 11
-14.6574619942694
 21
-167.6359097992767
 31
0.0
  0
LINE
  5
911
330
884
100
AcDbEntity
  8
Visible (ISO)
100
AcDbLine
 10
-14.6574619942694
 20
-167.6359097992767
 30
0.0
 11
-4.709011123608433
 21
-166.14096973719
 31
0.0
  0
ELLIPSE
  5
912
330
884
100
AcDbEntity
  8
Visible (ISO)
100
AcDbEllipse
 10
-14.6574619942694
 20
-156.5695172090923
 30
0.0
 11
7.323184099371366
 21
-8.207982373684432
 31
0.0
210
0.0
220
0.0
230
1.0
 40
0.6621092760253325
 41
0.0000000000000146
 42
3.141592653589805
  0
LINE
  5
913
330
884
100
AcDbEntity
  8
Visible (ISO)
100
AcDbLine
 10
-14.50000000000182
 20
-141.6625309292062
 30
0.0
 11
-14.50000000000182
 21
-120.9159999075623
 31
0.0
  0
LINE
  5
914
330
884
100
AcDbEntity
  8
Visible (ISO)
100
AcDbLine
 10
-12.0
 20
-120.9159999075609
 30
0.0
 11
-14.50000000000182
 21
-120.9159999075609
 31
0.0
  0
LINE
  5
915
330
884
100
AcDbEntity
  8
Visible (ISO)
100
AcDbLine
 10
14.49999999999727
 20
-120.9159999075632
 30
0.0
 11
14.49999999999727
 21
-141.6625309292062
 31
0.0
  0
LINE
  5
916
330
884
100
AcDbEntity
  8
Visible (ISO)
100
AcDbLine
 10
11.99999999999818
 20
-120.9159999075623
 30
0.0
 11
14.49999999999727
 21
-120.9159999075623
 31
0.0
  0
LINE
  5
917
330
884
100
AcDbEntity
  8
Visible (ISO)
100
AcDbLine
 10
-565.1780407622991
 20
-788.1522587333961
 30
0.0
 11
-565.1780407622991
 21
-812.1522587333961
 31
0.0
  0
LINE
  5
918
330
884
100
AcDbEntity
  8
Visible (ISO)
100
AcDbLine
 10
-567.6780407623
 20
-788.1522587333961
 30
0.0
 11
-565.1780407622991
 21
-788.1522587333961
 31
0.0
  0
LINE
  5
919
330
884
100
AcDbEntity
  8
Visible (ISO)
100
AcDbLine
 10
-567.6780407623
 20
-812.1522587333961
 30
0.0
 11
-565.1780407622991
 21
-812.1522587333961
 31
0.0
  0
LINE
  5
91A
330
884
100
AcDbEntity
  8
Visible (ISO)
100
AcDbLine
 10
565.1788682716378
 20
-812.25
 30
0.0
 11
565.1788682716378
 21
-788.2500000000009
 31
0.0
  0
LINE
  5
91B
330
884
100
AcDbEntity
  8
Visible (ISO)
100
AcDbLine
 10
567.6788682716378
 20
-812.25
 30
0.0
 11
565.1788682716378
 21
-812.25
 31
0.0
  0
LINE
  5
91C
330
884
100
AcDbEntity
  8
Visible (ISO)
100
AcDbLine
 10
567.6788682716378
 20
-788.2500000000009
 30
0.0
 11
565.1788682716378
 21
-788.2500000000009
 31
0.0
  0
LINE
  5
91D
330
884
100
AcDbEntity
  8
Visible (ISO)
100
AcDbLine
 10
551.0736375000069
 20
-794.2499999999999
 30
0.0
 11
551.0736375000069
 21
-806.25
 31
0.0
  0
LINE
  5
91E
330
884
100
AcDbEntity
  8
Visible (ISO)
100
AcDbLine
 10
550.0000000000055
 20
-805.1764625
 30
0.0
 11
550.0000000000055
 21
-795.3235374999999
 31
0.0
  0
LINE
  5
91F
330
884
100
AcDbEntity
  8
Visible (ISO)
100
AcDbLine
 10
550.0000000000055
 20
-795.3235374999999
 30
0.0
 11
551.0736375000069
 21
-794.2499999999999
 31
0.0
  0
LINE
  5
920
330
884
100
AcDbEntity
  8
Visible (ISO)
100
AcDbLine
 10
550.0000000000055
 20
-805.1764625
 30
0.0
 11
551.0736375000069
 21
-806.25
 31
0.0
  0
SPLINE
  5
921
330
884
100
AcDbEntity
  8
Visible (ISO)
100
AcDbSpline
210
0.0
220
0.0
230
1.0
 70
    12
 71
     2
 72
     6
 73
     3
 74
     0
 42
0.0000000001
 43
0.0000000001
 40
0.0
 40
0.0
 40
0.0
 40
0.5564242328364785
 40
0.5564242328364785
 40
0.5564242328364785
 10
586.6515942239748
 20
-809.75
 30
0.0
 41
1.0
 10
587.5001000000065
 20
-807.2044826719043
 30
0.0
 41
1.037954849302024
 10
587.5001000000083
 20
-805.0
 30
0.0
 41
1.0
  0
SPLINE
  5
922
330
884
100
AcDbEntity
  8
Visible (ISO)
100
AcDbSpline
210
0.0
220
0.0
230
1.0
 70
    28
 71
     2
 72
     6
 73
     3
 74
     0
 42
0.0000000001
 43
0.0000000001
 40
0.5564242328364775
 40
0.5564242328364775
 40
0.5564242328364775
 40
1.112848465672954
 40
1.112848465672954
 40
1.112848465672954
 10
587.5001000000083
 20
-809.75
 30
0.0
 41
1.0
 10
587.5001000000093
 20
-809.75
 30
0.0
 41
1.037954849302036
 10
586.6515942239748
 20
-809.75
 30
0.0
 41
1.0
  0
LINE
  5
923
330
884
100
AcDbEntity
  8
Visible (ISO)
100
AcDbLine
 10
587.5001000000083
 20
-809.75
 30
0.0
 11
587.5001000000083
 21
-805.0
 31
0.0
  0
SPLINE
  5
924
330
884
100
AcDbEntity
  8
Visible (ISO)
100
AcDbSpline
210
0.0
220
0.0
230
1.0
 70
    12
 71
     2
 72
     6
 73
     3
 74
     0
 42
0.0000000001
 43
0.0000000001
 40
0.0
 40
0.0
 40
0.0
 40
0.5564242328364771
 40
0.5564242328364771
 40
0.5564242328364771
 10
586.6515942239748
 20
-800.2499999999987
 30
0.0
 41
1.0
 10
587.5001000000093
 20
-797.7044826719043
 30
0.0
 41
1.037954849302042
 10
587.5001000000083
 20
-795.4999999999986
 30
0.0
 41
1.0
  0
SPLINE
  5
925
330
884
100
AcDbEntity
  8
Visible (ISO)
100
AcDbSpline
210
0.0
220
0.0
230
1.0
 70
    12
 71
     2
 72
     6
 73
     3
 74
     0
 42
0.0000000001
 43
0.0000000001
 40
0.5564242328364785
 40
0.5564242328364785
 40
0.5564242328364785
 40
1.112848465672956
 40
1.112848465672956
 40
1.112848465672956
 10
587.5001000000083
 20
-805.0
 30
0.0
 41
1.0
 10
587.5001000000093
 20
-802.7955173280947
 30
0.0
 41
1.037954849302036
 10
586.6515942239748
 20
-800.2499999999987
 30
0.0
 41
1.0
  0
LINE
  5
926
330
884
100
AcDbEntity
  8
Visible (ISO)
100
AcDbLine
 10
587.5001000000083
 20
-805.0
 30
0.0
 11
587.5001000000083
 21
-795.4999999999986
 31
0.0
  0
SPLINE
  5
927
330
884
100
AcDbEntity
  8
Visible (ISO)
100
AcDbSpline
210
0.0
220
0.0
230
1.0
 70
    28
 71
     2
 72
     6
 73
     3
 74
     0
 42
0.0000000001
 43
0.0000000001
 40
0.0
 40
0.0
 40
0.0
 40
0.5564242328364772
 40
0.5564242328364772
 40
0.5564242328364772
 10
586.6515942239748
 20
-790.7499999999986
 30
0.0
 41
1.0
 10
587.5001000000093
 20
-790.749999999999
 30
0.0
 41
1.037954849302045
 10
587.5001000000083
 20
-790.7499999999986
 30
0.0
 41
1.0
  0
SPLINE
  5
928
330
884
100
AcDbEntity
  8
Visible (ISO)
100
AcDbSpline
210
0.0
220
0.0
230
1.0
 70
    12
 71
     2
 72
     6
 73
     3
 74
     0
 42
0.0000000001
 43
0.0000000001
 40
0.5564242328364771
 40
0.5564242328364771
 40
0.5564242328364771
 40
1.112848465672952
 40
1.112848465672952
 40
1.112848465672952
 10
587.5001000000083
 20
-795.4999999999986
 30
0.0
 41
1.0
 10
587.5001000000093
 20
-793.2955173280957
 30
0.0
 41
1.037954849302037
 10
586.6515942239748
 20
-790.7499999999986
 30
0.0
 41
1.0
  0
LINE
  5
929
330
884
100
AcDbEntity
  8
Visible (ISO)
100
AcDbLine
 10
587.5001000000083
 20
-795.4999999999986
 30
0.0
 11
587.5001000000083
 21
-790.7499999999986
 31
0.0
  0
LINE
  5
92A
330
884
100
AcDbEntity
  8
Visible (ISO)
100
AcDbLine
 10
580.6001000000069
 20
-790.7499999999986
 30
0.0
 11
586.6515942239748
 21
-790.7499999999986
 31
0.0
  0
LINE
  5
92B
330
884
100
AcDbEntity
  8
Visible (ISO)
100
AcDbLine
 10
580.6001000000069
 20
-809.75
 30
0.0
 11
580.6001000000069
 21
-800.2499999999987
 31
0.0
  0
LINE
  5
92C
330
884
100
AcDbEntity
  8
Visible (ISO)
100
AcDbLine
 10
580.6001000000069
 20
-800.2499999999987
 30
0.0
 11
580.6001000000069
 21
-790.7499999999986
 31
0.0
  0
LINE
  5
92D
330
884
100
AcDbEntity
  8
Visible (ISO)
100
AcDbLine
 10
580.6001000000069
 20
-809.75
 30
0.0
 11
586.6515942239748
 21
-809.75
 31
0.0
  0
LINE
  5
92E
330
884
100
AcDbEntity
  8
Visible (ISO)
100
AcDbLine
 10
580.6001000000069
 20
-800.2499999999987
 30
0.0
 11
586.6515942239748
 21
-800.2499999999987
 31
0.0
  0
LINE
  5
92F
330
884
100
AcDbEntity
  8
Visible (ISO)
100
AcDbLine
 10
572.0000000000072
 20
-806.25
 30
0.0
 11
571.6788682716368
 21
-806.25
 31
0.0
  0
LINE
  5
930
330
884
100
AcDbEntity
  8
Visible (ISO)
100
AcDbLine
 10
553.1788682716378
 20
-806.25
 30
0.0
 11
551.0736375000069
 21
-806.25
 31
0.0
  0
LINE
  5
931
330
884
100
AcDbEntity
  8
Visible (ISO)
100
AcDbLine
 10
572.0000000000072
 20
-794.2499999999999
 30
0.0
 11
571.6788682716368
 21
-794.2499999999999
 31
0.0
  0
LINE
  5
932
330
884
100
AcDbEntity
  8
Visible (ISO)
100
AcDbLine
 10
553.1788682716378
 20
-794.2499999999999
 30
0.0
 11
551.0736375000069
 21
-794.2499999999999
 31
0.0
  0
LINE
  5
933
330
884
100
AcDbEntity
  8
Visible (ISO)
100
AcDbLine
 10
580.6001000000069
 20
-808.8499999999999
 30
0.0
 11
580.0000000000072
 21
-808.8499999999999
 31
0.0
  0
LINE
  5
934
330
884
100
AcDbEntity
  8
Visible (ISO)
100
AcDbLine
 10
580.6001000000069
 20
-791.6499999999992
 30
0.0
 11
580.0000000000072
 21
-791.6499999999992
 31
0.0
  0
LINE
  5
935
330
884
100
AcDbEntity
  8
Visible (ISO)
100
AcDbLine
 10
-551.0728099906682
 20
-806.1522587333948
 30
0.0
 11
-551.0728099906682
 21
-794.1522587333961
 31
0.0
  0
LINE
  5
936
330
884
100
AcDbEntity
  8
Visible (ISO)
100
AcDbLine
 10
-549.9991724906676
 20
-795.225796233396
 30
0.0
 11
-549.9991724906676
 21
-805.0787212333949
 31
0.0
  0
LINE
  5
937
330
884
100
AcDbEntity
  8
Visible (ISO)
100
AcDbLine
 10
-549.9991724906695
 20
-805.0787212333949
 30
0.0
 11
-551.0728099906682
 21
-806.1522587333948
 31
0.0
  0
LINE
  5
938
330
884
100
AcDbEntity
  8
Visible (ISO)
100
AcDbLine
 10
-549.9991724906695
 20
-795.225796233396
 30
0.0
 11
-551.0728099906682
 21
-794.1522587333961
 31
0.0
  0
SPLINE
  5
939
330
884
100
AcDbEntity
  8
Visible (ISO)
100
AcDbSpline
210
0.0
220
0.0
230
1.0
 70
    12
 71
     2
 72
     6
 73
     3
 74
     0
 42
0.0000000001
 43
0.0000000001
 40
0.5564242328364772
 40
0.5564242328364772
 40
0.5564242328364772
 40
1.112848465672954
 40
1.112848465672954
 40
1.112848465672954
 10
-587.4992724906678
 20
-804.9022587333947
 30
0.0
 41
1.0
 10
-587.4992724906678
 20
-807.1067414053
 30
0.0
 41
1.03795484930205
 10
-586.6507667146351
 20
-809.6522587333947
 30
0.0
 41
1.0
  0
LINE
  5
93A
330
884
100
AcDbEntity
  8
Visible (ISO)
100
AcDbLine
 10
-587.4992724906678
 20
-804.9022587333947
 30
0.0
 11
-587.4992724906678
 21
-809.6522587333947
 31
0.0
  0
SPLINE
  5
93B
330
884
100
AcDbEntity
  8
Visible (ISO)
100
AcDbSpline
210
0.0
220
0.0
230
1.0
 70
    28
 71
     2
 72
     6
 73
     3
 74
     0
 42
0.0000000001
 43
0.0000000001
 40
0.0
 40
0.0
 40
0.0
 40
0.5564242328364775
 40
0.5564242328364775
 40
0.5564242328364775
 10
-586.6507667146351
 20
-809.6522587333947
 30
0.0
 41
1.0
 10
-587.4992724906678
 20
-809.6522587333961
 30
0.0
 41
1.037954849302027
 10
-587.4992724906678
 20
-809.6522587333947
 30
0.0
 41
1.0
  0
SPLINE
  5
93C
330
884
100
AcDbEntity
  8
Visible (ISO)
100
AcDbSpline
210
0.0
220
0.0
230
1.0
 70
    12
 71
     2
 72
     6
 73
     3
 74
     0
 42
0.0000000001
 43
0.0000000001
 40
0.5564242328364779
 40
0.5564242328364779
 40
0.5564242328364779
 40
1.112848465672955
 40
1.112848465672955
 40
1.112848465672955
 10
-587.4992724906678
 20
-795.4022587333961
 30
0.0
 41
1.0
 10
-587.4992724906678
 20
-797.6067414053
 30
0.0
 41
1.037954849302045
 10
-586.6507667146351
 20
-800.1522587333962
 30
0.0
 41
1.0
  0
LINE
  5
93D
330
884
100
AcDbEntity
  8
Visible (ISO)
100
AcDbLine
 10
-587.4992724906678
 20
-795.4022587333961
 30
0.0
 11
-587.4992724906678
 21
-804.9022587333947
 31
0.0
  0
SPLINE
  5
93E
330
884
100
AcDbEntity
  8
Visible (ISO)
100
AcDbSpline
210
0.0
220
0.0
230
1.0
 70
    12
 71
     2
 72
     6
 73
     3
 74
     0
 42
0.0000000001
 43
0.0000000001
 40
0.0
 40
0.0
 40
0.0
 40
0.5564242328364772
 40
0.5564242328364772
 40
0.5564242328364772
 10
-586.6507667146351
 20
-800.1522587333962
 30
0.0
 41
1.0
 10
-587.4992724906678
 20
-802.6977760614908
 30
0.0
 41
1.03795484930204
 10
-587.4992724906678
 20
-804.9022587333947
 30
0.0
 41
1.0
  0
SPLINE
  5
93F
330
884
100
AcDbEntity
  8
Visible (ISO)
100
AcDbSpline
210
0.0
220
0.0
230
1.0
 70
    28
 71
     2
 72
     6
 73
     3
 74
     0
 42
0.0000000001
 43
0.0000000001
 40
0.5564242328364772
 40
0.5564242328364772
 40
0.5564242328364772
 40
1.112848465672954
 40
1.112848465672954
 40
1.112848465672954
 10
-587.4992724906678
 20
-790.6522587333961
 30
0.0
 41
1.0
 10
-587.4992724906678
 20
-790.6522587333961
 30
0.0
 41
1.037954849302045
 10
-586.6507667146351
 20
-790.6522587333961
 30
0.0
 41
1.0
  0
LINE
  5
940
330
884
100
AcDbEntity
  8
Visible (ISO)
100
AcDbLine
 10
-587.4992724906678
 20
-790.6522587333961
 30
0.0
 11
-587.4992724906678
 21
-795.4022587333961
 31
0.0
  0
SPLINE
  5
941
330
884
100
AcDbEntity
  8
Visible (ISO)
100
AcDbSpline
210
0.0
220
0.0
230
1.0
 70
    12
 71
     2
 72
     6
 73
     3
 74
     0
 42
0.0000000001
 43
0.0000000001
 40
0.0
 40
0.0
 40
0.0
 40
0.5564242328364779
 40
0.5564242328364779
 40
0.5564242328364779
 10
-586.6507667146351
 20
-790.6522587333961
 30
0.0
 41
1.0
 10
-587.4992724906678
 20
-793.1977760614913
 30
0.0
 41
1.03795484930204
 10
-587.4992724906678
 20
-795.4022587333961
 30
0.0
 41
1.0
  0
LINE
  5
942
330
884
100
AcDbEntity
  8
Visible (ISO)
100
AcDbLine
 10
-580.5992724906691
 20
-790.6522587333961
 30
0.0
 11
-586.6507667146351
 21
-790.6522587333961
 31
0.0
  0
LINE
  5
943
330
884
100
AcDbEntity
  8
Visible (ISO)
100
AcDbLine
 10
-580.5992724906691
 20
-800.1522587333962
 30
0.0
 11
-586.6507667146351
 21
-800.1522587333962
 31
0.0
  0
LINE
  5
944
330
884
100
AcDbEntity
  8
Visible (ISO)
100
AcDbLine
 10
-580.5992724906691
 20
-790.6522587333961
 30
0.0
 11
-580.5992724906691
 21
-800.1522587333962
 31
0.0
  0
LINE
  5
945
330
884
100
AcDbEntity
  8
Visible (ISO)
100
AcDbLine
 10
-580.5992724906691
 20
-809.6522587333947
 30
0.0
 11
-586.6507667146351
 21
-809.6522587333947
 31
0.0
  0
LINE
  5
946
330
884
100
AcDbEntity
  8
Visible (ISO)
100
AcDbLine
 10
-580.5992724906691
 20
-800.1522587333962
 30
0.0
 11
-580.5992724906691
 21
-809.6522587333947
 31
0.0
  0
LINE
  5
947
330
884
100
AcDbEntity
  8
Visible (ISO)
100
AcDbLine
 10
-571.9991724906676
 20
-794.1522587333961
 30
0.0
 11
-571.6780407622991
 21
-794.1522587333961
 31
0.0
  0
LINE
  5
948
330
884
100
AcDbEntity
  8
Visible (ISO)
100
AcDbLine
 10
-553.1780407623
 20
-794.1522587333961
 30
0.0
 11
-551.0728099906682
 21
-794.1522587333961
 31
0.0
  0
LINE
  5
949
330
884
100
AcDbEntity
  8
Visible (ISO)
100
AcDbLine
 10
-571.9991724906676
 20
-806.1522587333948
 30
0.0
 11
-571.6780407622991
 21
-806.1522587333948
 31
0.0
  0
LINE
  5
94A
330
884
100
AcDbEntity
  8
Visible (ISO)
100
AcDbLine
 10
-553.1780407623
 20
-806.1522587333948
 30
0.0
 11
-551.0728099906682
 21
-806.1522587333948
 31
0.0
  0
LINE
  5
94B
330
884
100
AcDbEntity
  8
Visible (ISO)
100
AcDbLine
 10
-580.5992724906691
 20
-791.5522587333948
 30
0.0
 11
-579.9991724906676
 21
-791.5522587333948
 31
0.0
  0
LINE
  5
94C
330
884
100
AcDbEntity
  8
Visible (ISO)
100
AcDbLine
 10
-580.5992724906691
 20
-808.752258733396
 30
0.0
 11
-579.9991724906676
 21
-808.752258733396
 31
0.0
  0
SPLINE
  5
94D
330
884
100
AcDbEntity
  8
Visible (ISO)
100
AcDbSpline
210
0.0
220
0.0
230
1.0
 70
    12
 71
     2
 72
     6
 73
     3
 74
     0
 42
0.0000000001
 43
0.0000000001
 40
0.5564242328364772
 40
0.5564242328364772
 40
0.5564242328364772
 40
1.112848465672954
 40
1.112848465672954
 40
1.112848465672954
 10
22.0001000000002
 20
-128.1659999075623
 30
0.0
 41
1.0
 10
22.0001000000002
 20
-125.9615172356571
 30
0.0
 41
1.03795484930205
 10
21.15159422396664
 20
-123.4159999075623
 30
0.0
 41
1.0
  0
LINE
  5
94E
330
884
100
AcDbEntity
  8
Visible (ISO)
100
AcDbLine
 10
22.0001000000002
 20
-128.1659999075623
 30
0.0
 11
22.0001000000002
 21
-123.4159999075623
 31
0.0
  0
SPLINE
  5
94F
330
884
100
AcDbEntity
  8
Visible (ISO)
100
AcDbSpline
210
0.0
220
0.0
230
1.0
 70
    28
 71
     2
 72
     6
 73
     3
 74
     0
 42
0.0000000001
 43
0.0000000001
 40
0.0
 40
0.0
 40
0.0
 40
0.5564242328364775
 40
0.5564242328364775
 40
0.5564242328364775
 10
21.15159422396664
 20
-123.4159999075623
 30
0.0
 41
1.0
 10
22.0001000000002
 20
-123.4159999075623
 30
0.0
 41
1.037954849302027
 10
22.0001000000002
 20
-123.4159999075623
 30
0.0
 41
1.0
  0
SPLINE
  5
950
330
884
100
AcDbEntity
  8
Visible (ISO)
100
AcDbSpline
210
0.0
220
0.0
230
1.0
 70
    12
 71
     2
 72
     6
 73
     3
 74
     0
 42
0.0000000001
 43
0.0000000001
 40
0.5564242328364779
 40
0.5564242328364779
 40
0.5564242328364779
 40
1.112848465672955
 40
1.112848465672955
 40
1.112848465672955
 10
22.0001000000002
 20
-137.6659999075623
 30
0.0
 41
1.0
 10
22.0001000000002
 20
-135.461517235658
 30
0.0
 41
1.037954849302045
 10
21.15159422396664
 20
-132.9159999075623
 30
0.0
 41
1.0
  0
LINE
  5
951
330
884
100
AcDbEntity
  8
Visible (ISO)
100
AcDbLine
 10
22.0001000000002
 20
-137.6659999075623
 30
0.0
 11
22.0001000000002
 21
-128.1659999075623
 31
0.0
  0
SPLINE
  5
952
330
884
100
AcDbEntity
  8
Visible (ISO)
100
AcDbSpline
210
0.0
220
0.0
230
1.0
 70
    12
 71
     2
 72
     6
 73
     3
 74
     0
 42
0.0000000001
 43
0.0000000001
 40
0.0
 40
0.0
 40
0.0
 40
0.5564242328364772
 40
0.5564242328364772
 40
0.5564242328364772
 10
21.15159422396664
 20
-132.9159999075623
 30
0.0
 41
1.0
 10
22.0001000000002
 20
-130.3704825794661
 30
0.0
 41
1.03795484930204
 10
22.0001000000002
 20
-128.1659999075623
 30
0.0
 41
1.0
  0
SPLINE
  5
953
330
884
100
AcDbEntity
  8
Visible (ISO)
100
AcDbSpline
210
0.0
220
0.0
230
1.0
 70
    28
 71
     2
 72
     6
 73
     3
 74
     0
 42
0.0000000001
 43
0.0000000001
 40
0.5564242328364772
 40
0.5564242328364772
 40
0.5564242328364772
 40
1.112848465672954
 40
1.112848465672954
 40
1.112848465672954
 10
22.0001000000002
 20
-142.4159999075623
 30
0.0
 41
1.0
 10
22.0001000000002
 20
-142.4159999075623
 30
0.0
 41
1.037954849302045
 10
21.15159422396664
 20
-142.4159999075623
 30
0.0
 41
1.0
  0
LINE
  5
954
330
884
100
AcDbEntity
  8
Visible (ISO)
100
AcDbLine
 10
22.0001000000002
 20
-142.4159999075623
 30
0.0
 11
22.0001000000002
 21
-137.6659999075623
 31
0.0
  0
SPLINE
  5
955
330
884
100
AcDbEntity
  8
Visible (ISO)
100
AcDbSpline
210
0.0
220
0.0
230
1.0
 70
    12
 71
     2
 72
     6
 73
     3
 74
     0
 42
0.0000000001
 43
0.0000000001
 40
0.0
 40
0.0
 40
0.0
 40
0.5564242328364779
 40
0.5564242328364779
 40
0.5564242328364779
 10
21.15159422396664
 20
-142.4159999075623
 30
0.0
 41
1.0
 10
22.0001000000002
 20
-139.8704825794671
 30
0.0
 41
1.03795484930204
 10
22.0001000000002
 20
-137.6659999075623
 30
0.0
 41
1.0
  0
LINE
  5
956
330
884
100
AcDbEntity
  8
Visible (ISO)
100
AcDbLine
 10
18.11930533696977
 20
-142.4159999075623
 30
0.0
 11
21.15159422396664
 21
-142.4159999075623
 31
0.0
  0
LINE
  5
957
330
884
100
AcDbEntity
  8
Visible (ISO)
100
AcDbLine
 10
15.10010000000056
 20
-132.9159999075623
 30
0.0
 11
21.15159422396664
 21
-132.9159999075623
 31
0.0
  0
LINE
  5
958
330
884
100
AcDbEntity
  8
Visible (ISO)
100
AcDbLine
 10
15.10010000000056
 20
-141.7597469610068
 30
0.0
 11
15.10010000000056
 21
-132.9159999075623
 31
0.0
  0
LINE
  5
959
330
884
100
AcDbEntity
  8
Visible (ISO)
100
AcDbLine
 10
15.10010000000056
 20
-123.4159999075623
 30
0.0
 11
21.15159422396664
 21
-123.4159999075623
 31
0.0
  0
LINE
  5
95A
330
884
100
AcDbEntity
  8
Visible (ISO)
100
AcDbLine
 10
15.10010000000056
 20
-132.9159999075623
 30
0.0
 11
15.10010000000056
 21
-123.4159999075623
 31
0.0
  0
LINE
  5
95B
330
884
100
AcDbEntity
  8
Visible (ISO)
100
AcDbLine
 10
15.10010000000056
 20
-141.5159999075617
 30
0.0
 11
14.49999999999818
 21
-141.5159999075617
 31
0.0
  0
LINE
  5
95C
330
884
100
AcDbEntity
  8
Visible (ISO)
100
AcDbLine
 10
15.10010000000056
 20
-124.3159999075619
 30
0.0
 11
14.49999999999818
 21
-124.3159999075619
 31
0.0
  0
LINE
  5
95D
330
884
100
AcDbEntity
  8
Visible (ISO)
100
AcDbLine
 10
-26.5
 20
-141.6159999075621
 30
0.0
 11
-26.5
 21
-124.215999907562
 31
0.0
  0
LINE
  5
95E
330
884
100
AcDbEntity
  8
Visible (ISO)
100
AcDbLine
 10
-22.50000000000182
 20
-141.6159999075621
 30
0.0
 11
-22.50000000000182
 21
-124.215999907562
 31
0.0
  0
LINE
  5
95F
330
884
100
AcDbEntity
  8
Visible (ISO)
100
AcDbLine
 10
-22.50000000000182
 20
-141.6159999075621
 30
0.0
 11
-26.5
 21
-141.6159999075621
 31
0.0
  0
LINE
  5
960
330
884
100
AcDbEntity
  8
Visible (ISO)
100
AcDbLine
 10
-22.50000000000182
 20
-124.215999907562
 30
0.0
 11
-26.5
 21
-124.215999907562
 31
0.0
  0
SPLINE
  5
961
330
884
100
AcDbEntity
  8
Visible (ISO)
100
AcDbSpline
210
0.0
220
0.0
230
1.0
 70
    28
 71
     2
 72
     6
 73
     3
 74
     0
 42
0.0000000001
 43
0.0000000001
 40
0.0
 40
0.0
 40
0.0
 40
0.5550071655870046
 40
0.5550071655870046
 40
0.5550071655870046
 10
-21.18961400861735
 20
-142.4159999075623
 30
0.0
 41
1.0
 10
-22.03811978465001
 20
-142.4159999075623
 30
0.0
 41
1.077350269189623
 10
-22.03811978465001
 20
-142.4159999075609
 30
0.0
 41
1.077350269189623
  0
SPLINE
  5
962
330
884
100
AcDbEntity
  8
Visible (ISO)
100
AcDbSpline
210
0.0
220
0.0
230
1.0
 70
    12
 71
     2
 72
     6
 73
     3
 74
     0
 42
0.0000000001
 43
0.0000000001
 40
0.0
 40
0.0
 40
0.0
 40
1.110014331174022
 40
1.110014331174022
 40
1.110014331174022
 10
-21.18961400861735
 20
-132.9159999075623
 30
0.0
 41
1.0
 10
-22.7729473419522
 20
-137.6659999075623
 30
0.0
 41
1.154700538379248
 10
-21.18961400861735
 20
-142.4159999075623
 30
0.0
 41
1.0
  0
SPLINE
  5
963
330
884
100
AcDbEntity
  8
Visible (ISO)
100
AcDbSpline
210
0.0
220
0.0
230
1.0
 70
    12
 71
     2
 72
     6
 73
     3
 74
     0
 42
0.0000000001
 43
0.0000000001
 40
0.0
 40
0.0
 40
0.0
 40
1.110014331174022
 40
1.110014331174022
 40
1.110014331174022
 10
-21.18961400861735
 20
-123.4159999075623
 30
0.0
 41
1.0
 10
-22.7729473419522
 20
-128.1659999075623
 30
0.0
 41
1.154700538379255
 10
-21.18961400861735
 20
-132.9159999075623
 30
0.0
 41
1.0
  0
SPLINE
  5
964
330
884
100
AcDbEntity
  8
Visible (ISO)
100
AcDbSpline
210
0.0
220
0.0
230
1.0
 70
    28
 71
     2
 72
     6
 73
     3
 74
     0
 42
0.0000000001
 43
0.0000000001
 40
0.5550071655870191
 40
0.5550071655870191
 40
0.5550071655870191
 40
1.110014331174022
 40
1.110014331174022
 40
1.110014331174022
 10
-22.03811978465001
 20
-123.4159999075623
 30
0.0
 41
1.077350269189624
 10
-22.03811978465001
 20
-123.4159999075623
 30
0.0
 41
1.077350269189623
 10
-21.18961400861735
 20
-123.4159999075623
 30
0.0
 41
1.0
  0
SPLINE
  5
965
330
884
100
AcDbEntity
  8
Visible (ISO)
100
AcDbSpline
210
0.0
220
0.0
230
1.0
 70
    28
 71
     2
 72
     6
 73
     3
 74
     0
 42
0.0000000001
 43
0.0000000001
 40
0.0
 40
0.0
 40
0.0
 40
0.5550071655869968
 40
0.5550071655869968
 40
0.5550071655869968
 10
-15.81038599138446
 20
-123.4159999075623
 30
0.0
 41
1.0
 10
-14.96188021535272
 20
-123.4159999075632
 30
0.0
 41
1.077350269189623
 10
-14.96188021535272
 20
-123.4159999075623
 30
0.0
 41
1.077350269189623
  0
SPLINE
  5
966
330
884
100
AcDbEntity
  8
Visible (ISO)
100
AcDbSpline
210
0.0
220
0.0
230
1.0
 70
    12
 71
     2
 72
     6
 73
     3
 74
     0
 42
0.0000000001
 43
0.0000000001
 40
0.0
 40
0.0
 40
0.0
 40
1.110014331174021
 40
1.110014331174021
 40
1.110014331174021
 10
-15.81038599138446
 20
-132.9159999075623
 30
0.0
 41
1.0
 10
-14.22705265805053
 20
-128.1659999075618
 30
0.0
 41
1.154700538379253
 10
-15.81038599138446
 20
-123.4159999075623
 30
0.0
 41
1.0
  0
SPLINE
  5
967
330
884
100
AcDbEntity
  8
Visible (ISO)
100
AcDbSpline
210
0.0
220
0.0
230
1.0
 70
    12
 71
     2
 72
     6
 73
     3
 74
     0
 42
0.0000000001
 43
0.0000000001
 40
0.0578773805010747
 40
0.0578773805010747
 40
0.0578773805010747
 40
1.110014331174022
 40
1.110014331174022
 40
1.110014331174022
 10
-15.63239213946508
 20
-141.8565797356768
 30
0.0
 41
1.015291348597141
 10
-14.29905186526321
 20
-137.4500022859297
 30
0.0
 41
1.146634280429207
 10
-15.81038599138446
 20
-132.9159999075623
 30
0.0
 41
1.0
  0
LINE
  5
968
330
884
100
AcDbEntity
  8
Visible (ISO)
100
AcDbLine
 10
-22.50000000000182
 20
-124.215999907562
 30
0.0
 11
-22.03811978465001
 21
-123.4159999075623
 31
0.0
  0
LINE
  5
969
330
884
100
AcDbEntity
  8
Visible (ISO)
100
AcDbLine
 10
-22.50000000000182
 20
-141.6159999075621
 30
0.0
 11
-22.03811978465001
 21
-142.4159999075623
 31
0.0
  0
LINE
  5
96A
330
884
100
AcDbEntity
  8
Visible (ISO)
100
AcDbLine
 10
-14.50000000000182
 20
-141.6159999075621
 30
0.0
 11
-14.52943667924683
 21
-141.6669857316219
 31
0.0
  0
LINE
  5
96B
330
884
100
AcDbEntity
  8
Visible (ISO)
100
AcDbLine
 10
-14.50000000000182
 20
-124.215999907562
 30
0.0
 11
-14.96188021535272
 21
-123.4159999075623
 31
0.0
  0
LINE
  5
96C
330
884
100
AcDbEntity
  8
Visible (ISO)
100
AcDbLine
 10
-18.11930533697159
 20
-142.4159999075623
 30
0.0
 11
-21.18961400861735
 21
-142.4159999075623
 31
0.0
  0
LINE
  5
96D
330
884
100
AcDbEntity
  8
Visible (ISO)
100
AcDbLine
 10
-15.81038599138446
 20
-132.9159999075623
 30
0.0
 11
-21.18961400861735
 21
-132.9159999075623
 31
0.0
  0
LINE
  5
96E
330
884
100
AcDbEntity
  8
Visible (ISO)
100
AcDbLine
 10
-15.81038599138446
 20
-123.4159999075623
 30
0.0
 11
-21.18961400861735
 21
-123.4159999075623
 31
0.0
  0
LINE
  5
96F
330
884
100
AcDbEntity
  8
Visible (ISO)
100
AcDbLine
 10
-553.1780407623
 20
-791.4522587333949
 30
0.0
 11
-553.1780407623
 21
-808.852258733396
 31
0.0
  0
LINE
  5
970
330
884
100
AcDbEntity
  8
Visible (ISO)
100
AcDbLine
 10
-557.1780407623
 20
-791.4522587333949
 30
0.0
 11
-557.1780407623
 21
-808.852258733396
 31
0.0
  0
LINE
  5
971
330
884
100
AcDbEntity
  8
Visible (ISO)
100
AcDbLine
 10
-557.1780407623
 20
-791.4522587333949
 30
0.0
 11
-553.1780407623
 21
-791.4522587333949
 31
0.0
  0
LINE
  5
972
330
884
100
AcDbEntity
  8
Visible (ISO)
100
AcDbLine
 10
-557.1780407623
 20
-808.852258733396
 30
0.0
 11
-553.1780407623
 21
-808.852258733396
 31
0.0
  0
SPLINE
  5
973
330
884
100
AcDbEntity
  8
Visible (ISO)
100
AcDbSpline
210
0.0
220
0.0
230
1.0
 70
    12
 71
     2
 72
     6
 73
     3
 74
     0
 42
0.0000000001
 43
0.0000000001
 40
0.0
 40
0.0
 40
0.0
 40
1.110014331174022
 40
1.110014331174022
 40
1.110014331174022
 10
-558.4884267536818
 20
-800.1522587333962
 30
0.0
 41
1.0
 10
-556.9050934203496
 20
-795.4022587333961
 30
0.0
 41
1.154700538379245
 10
-558.4884267536818
 20
-790.6522587333961
 30
0.0
 41
1.0
  0
SPLINE
  5
974
330
884
100
AcDbEntity
  8
Visible (ISO)
100
AcDbSpline
210
0.0
220
0.0
230
1.0
 70
    12
 71
     2
 72
     6
 73
     3
 74
     0
 42
0.0000000001
 43
0.0000000001
 40
0.0
 40
0.0
 40
0.0
 40
1.110014331174024
 40
1.110014331174024
 40
1.110014331174024
 10
-558.4884267536818
 20
-809.6522587333947
 30
0.0
 41
1.0
 10
-556.9050934203496
 20
-804.9022587333947
 30
0.0
 41
1.154700538379244
 10
-558.4884267536818
 20
-800.1522587333962
 30
0.0
 41
1.0
  0
SPLINE
  5
975
330
884
100
AcDbEntity
  8
Visible (ISO)
100
AcDbSpline
210
0.0
220
0.0
230
1.0
 70
    28
 71
     2
 72
     6
 73
     3
 74
     0
 42
0.0000000001
 43
0.0000000001
 40
0.5550071655870232
 40
0.5550071655870232
 40
0.5550071655870232
 40
1.110014331174024
 40
1.110014331174024
 40
1.110014331174024
 10
-557.6399209776518
 20
-809.6522587333961
 30
0.0
 41
1.077350269189623
 10
-557.6399209776518
 20
-809.6522587333961
 30
0.0
 41
1.077350269189623
 10
-558.4884267536818
 20
-809.6522587333947
 30
0.0
 41
1.0
  0
SPLINE
  5
976
330
884
100
AcDbEntity
  8
Visible (ISO)
100
AcDbSpline
210
0.0
220
0.0
230
1.0
 70
    28
 71
     2
 72
     6
 73
     3
 74
     0
 42
0.0000000001
 43
0.0000000001
 40
0.0
 40
0.0
 40
0.0
 40
0.555007165587
 40
0.555007165587
 40
0.555007165587
 10
-558.4884267536818
 20
-790.6522587333961
 30
0.0
 41
1.0
 10
-557.6399209776518
 20
-790.6522587333961
 30
0.0
 41
1.077350269189623
 10
-557.6399209776518
 20
-790.6522587333961
 30
0.0
 41
1.077350269189624
  0
SPLINE
  5
977
330
884
100
AcDbEntity
  8
Visible (ISO)
100
AcDbSpline
210
0.0
220
0.0
230
1.0
 70
    12
 71
     2
 72
     6
 73
     3
 74
     0
 42
0.0000000001
 43
0.0000000001
 40
0.0
 40
0.0
 40
0.0
 40
1.110014331174024
 40
1.110014331174024
 40
1.110014331174024
 10
-563.8676547709155
 20
-800.1522587333962
 30
0.0
 41
1.0
 10
-565.4509881042494
 20
-804.9022587333952
 30
0.0
 41
1.154700538379249
 10
-563.8676547709155
 20
-809.6522587333947
 30
0.0
 41
1.0
  0
SPLINE
  5
978
330
884
100
AcDbEntity
  8
Visible (ISO)
100
AcDbSpline
210
0.0
220
0.0
230
1.0
 70
    12
 71
     2
 72
     6
 73
     3
 74
     0
 42
0.0000000001
 43
0.0000000001
 40
0.0
 40
0.0
 40
0.0
 40
1.110014331174022
 40
1.110014331174022
 40
1.110014331174022
 10
-563.8676547709155
 20
-790.6522587333961
 30
0.0
 41
1.0
 10
-565.4509881042494
 20
-795.4022587333961
 30
0.0
 41
1.154700538379253
 10
-563.8676547709155
 20
-800.1522587333962
 30
0.0
 41
1.0
  0
SPLINE
  5
979
330
884
100
AcDbEntity
  8
Visible (ISO)
100
AcDbSpline
210
0.0
220
0.0
230
1.0
 70
    28
 71
     2
 72
     6
 73
     3
 74
     0
 42
0.0000000001
 43
0.0000000001
 40
0.5550071655870111
 40
0.5550071655870111
 40
0.5550071655870111
 40
1.110014331174022
 40
1.110014331174022
 40
1.110014331174022
 10
-564.7161605469482
 20
-790.6522587333961
 30
0.0
 41
1.077350269189623
 10
-564.7161605469482
 20
-790.6522587333961
 30
0.0
 41
1.077350269189623
 10
-563.8676547709155
 20
-790.6522587333961
 30
0.0
 41
1.0
  0
SPLINE
  5
97A
330
884
100
AcDbEntity
  8
Visible (ISO)
100
AcDbSpline
210
0.0
220
0.0
230
1.0
 70
    28
 71
     2
 72
     6
 73
     3
 74
     0
 42
0.0000000001
 43
0.0000000001
 40
0.0
 40
0.0
 40
0.0
 40
0.5550071655870008
 40
0.5550071655870008
 40
0.5550071655870008
 10
-563.8676547709155
 20
-809.6522587333947
 30
0.0
 41
1.0
 10
-564.7161605469482
 20
-809.6522587333961
 30
0.0
 41
1.077350269189623
 10
-564.7161605469482
 20
-809.6522587333961
 30
0.0
 41
1.077350269189623
  0
LINE
  5
97B
330
884
100
AcDbEntity
  8
Visible (ISO)
100
AcDbLine
 10
-557.1780407623
 20
-808.852258733396
 30
0.0
 11
-557.6399209776518
 21
-809.6522587333947
 31
0.0
  0
LINE
  5
97C
330
884
100
AcDbEntity
  8
Visible (ISO)
100
AcDbLine
 10
-557.1780407623
 20
-791.4522587333949
 30
0.0
 11
-557.6399209776518
 21
-790.6522587333961
 31
0.0
  0
LINE
  5
97D
330
884
100
AcDbEntity
  8
Visible (ISO)
100
AcDbLine
 10
-565.1780407622991
 20
-791.4522587333949
 30
0.0
 11
-564.7161605469482
 21
-790.6522587333961
 31
0.0
  0
LINE
  5
97E
330
884
100
AcDbEntity
  8
Visible (ISO)
100
AcDbLine
 10
-565.1780407622991
 20
-808.852258733396
 30
0.0
 11
-564.7161605469482
 21
-809.6522587333947
 31
0.0
  0
LINE
  5
97F
330
884
100
AcDbEntity
  8
Visible (ISO)
100
AcDbLine
 10
-563.8676547709155
 20
-809.6522587333947
 30
0.0
 11
-558.4884267536818
 21
-809.6522587333947
 31
0.0
  0
LINE
  5
980
330
884
100
AcDbEntity
  8
Visible (ISO)
100
AcDbLine
 10
-563.8676547709155
 20
-800.1522587333962
 30
0.0
 11
-558.4884267536818
 21
-800.1522587333962
 31
0.0
  0
LINE
  5
981
330
884
100
AcDbEntity
  8
Visible (ISO)
100
AcDbLine
 10
-563.8676547709155
 20
-790.6522587333961
 30
0.0
 11
-558.4884267536818
 21
-790.6522587333961
 31
0.0
  0
LINE
  5
982
330
884
100
AcDbEntity
  8
Visible (ISO)
100
AcDbLine
 10
553.1788682716378
 20
-808.9500000000002
 30
0.0
 11
553.1788682716378
 21
-791.5500000000002
 31
0.0
  0
LINE
  5
983
330
884
100
AcDbEntity
  8
Visible (ISO)
100
AcDbLine
 10
557.1788682716378
 20
-808.9500000000002
 30
0.0
 11
557.1788682716378
 21
-791.5500000000002
 31
0.0
  0
LINE
  5
984
330
884
100
AcDbEntity
  8
Visible (ISO)
100
AcDbLine
 10
557.1788682716378
 20
-808.9500000000002
 30
0.0
 11
553.1788682716378
 21
-808.9500000000002
 31
0.0
  0
LINE
  5
985
330
884
100
AcDbEntity
  8
Visible (ISO)
100
AcDbLine
 10
557.1788682716378
 20
-791.5500000000002
 30
0.0
 11
553.1788682716378
 21
-791.5500000000002
 31
0.0
  0
SPLINE
  5
986
330
884
100
AcDbEntity
  8
Visible (ISO)
100
AcDbSpline
210
0.0
220
0.0
230
1.0
 70
    28
 71
     2
 72
     6
 73
     3
 74
     0
 42
0.0000000001
 43
0.0000000001
 40
0.0
 40
0.0
 40
0.0
 40
0.5550071655870123
 40
0.5550071655870123
 40
0.5550071655870123
 10
558.4892542630223
 20
-809.75
 30
0.0
 41
1.0
 10
557.6407484869905
 20
-809.75
 30
0.0
 41
1.077350269189623
 10
557.6407484869905
 20
-809.75
 30
0.0
 41
1.077350269189623
  0
SPLINE
  5
987
330
884
100
AcDbEntity
  8
Visible (ISO)
100
AcDbSpline
210
0.0
220
0.0
230
1.0
 70
    12
 71
     2
 72
     6
 73
     3
 74
     0
 42
0.0000000001
 43
0.0000000001
 40
0.0
 40
0.0
 40
0.0
 40
1.110014331174022
 40
1.110014331174022
 40
1.110014331174022
 10
558.4892542630223
 20
-800.2500000000008
 30
0.0
 41
1.0
 10
556.9059209296874
 20
-805.0
 30
0.0
 41
1.154700538379248
 10
558.4892542630223
 20
-809.75
 30
0.0
 41
1.0
  0
SPLINE
  5
988
330
884
100
AcDbEntity
  8
Visible (ISO)
100
AcDbSpline
210
0.0
220
0.0
230
1.0
 70
    12
 71
     2
 72
     6
 73
     3
 74
     0
 42
0.0000000001
 43
0.0000000001
 40
0.0
 40
0.0
 40
0.0
 40
1.110014331174022
 40
1.110014331174022
 40
1.110014331174022
 10
558.4892542630223
 20
-790.7499999999999
 30
0.0
 41
1.0
 10
556.9059209296884
 20
-795.5000000000008
 30
0.0
 41
1.154700538379255
 10
558.4892542630223
 20
-800.2500000000008
 30
0.0
 41
1.0
  0
SPLINE
  5
989
330
884
100
AcDbEntity
  8
Visible (ISO)
100
AcDbSpline
210
0.0
220
0.0
230
1.0
 70
    28
 71
     2
 72
     6
 73
     3
 74
     0
 42
0.0000000001
 43
0.0000000001
 40
0.5550071655870222
 40
0.5550071655870222
 40
0.5550071655870222
 40
1.110014331174022
 40
1.110014331174022
 40
1.110014331174022
 10
557.6407484869905
 20
-790.7499999999999
 30
0.0
 41
1.077350269189624
 10
557.6407484869905
 20
-790.7499999999999
 30
0.0
 41
1.077350269189623
 10
558.4892542630223
 20
-790.7499999999999
 30
0.0
 41
1.0
  0
SPLINE
  5
98A
330
884
100
AcDbEntity
  8
Visible (ISO)
100
AcDbSpline
210
0.0
220
0.0
230
1.0
 70
    28
 71
     2
 72
     6
 73
     3
 74
     0
 42
0.0000000001
 43
0.0000000001
 40
0.0
 40
0.0
 40
0.0
 40
0.5550071655869996
 40
0.5550071655869996
 40
0.5550071655869996
 10
563.868482280256
 20
-790.7499999999999
 30
0.0
 41
1.0
 10
564.716988056285
 20
-790.7499999999999
 30
0.0
 41
1.077350269189623
 10
564.7169880562869
 20
-790.7499999999999
 30
0.0
 41
1.077350269189623
  0
SPLINE
  5
98B
330
884
100
AcDbEntity
  8
Visible (ISO)
100
AcDbSpline
210
0.0
220
0.0
230
1.0
 70
    12
 71
     2
 72
     6
 73
     3
 74
     0
 42
0.0000000001
 43
0.0000000001
 40
0.0
 40
0.0
 40
0.0
 40
1.110014331174021
 40
1.110014331174021
 40
1.110014331174021
 10
563.868482280256
 20
-800.2500000000008
 30
0.0
 41
1.0
 10
565.4518156135882
 20
-795.5000000000008
 30
0.0
 41
1.154700538379253
 10
563.868482280256
 20
-790.7499999999999
 30
0.0
 41
1.0
  0
SPLINE
  5
98C
330
884
100
AcDbEntity
  8
Visible (ISO)
100
AcDbSpline
210
0.0
220
0.0
230
1.0
 70
    12
 71
     2
 72
     6
 73
     3
 74
     0
 42
0.0000000001
 43
0.0000000001
 40
0.0
 40
0.0
 40
0.0
 40
1.110014331174022
 40
1.110014331174022
 40
1.110014331174022
 10
563.868482280256
 20
-809.75
 30
0.0
 41
1.0
 10
565.4518156135882
 20
-805.0000000000004
 30
0.0
 41
1.154700538379253
 10
563.868482280256
 20
-800.2500000000008
 30
0.0
 41
1.0
  0
SPLINE
  5
98D
330
884
100
AcDbEntity
  8
Visible (ISO)
100
AcDbSpline
210
0.0
220
0.0
230
1.0
 70
    28
 71
     2
 72
     6
 73
     3
 74
     0
 42
0.0000000001
 43
0.0000000001
 40
0.555007165587023
 40
0.555007165587023
 40
0.555007165587023
 40
1.110014331174022
 40
1.110014331174022
 40
1.110014331174022
 10
564.7169880562869
 20
-809.75
 30
0.0
 41
1.077350269189623
 10
564.716988056285
 20
-809.75
 30
0.0
 41
1.077350269189623
 10
563.868482280256
 20
-809.75
 30
0.0
 41
1.0
  0
LINE
  5
98E
330
884
100
AcDbEntity
  8
Visible (ISO)
100
AcDbLine
 10
557.1788682716378
 20
-791.5500000000002
 30
0.0
 11
557.6407484869905
 21
-790.7499999999999
 31
0.0
  0
LINE
  5
98F
330
884
100
AcDbEntity
  8
Visible (ISO)
100
AcDbLine
 10
557.1788682716378
 20
-808.9500000000002
 30
0.0
 11
557.6407484869905
 21
-809.75
 31
0.0
  0
LINE
  5
990
330
884
100
AcDbEntity
  8
Visible (ISO)
100
AcDbLine
 10
565.1788682716378
 20
-808.9500000000002
 30
0.0
 11
564.716988056286
 21
-809.75
 31
0.0
  0
LINE
  5
991
330
884
100
AcDbEntity
  8
Visible (ISO)
100
AcDbLine
 10
565.1788682716378
 20
-791.5500000000002
 30
0.0
 11
564.716988056286
 21
-790.7499999999999
 31
0.0
  0
LINE
  5
992
330
884
100
AcDbEntity
  8
Visible (ISO)
100
AcDbLine
 10
563.868482280256
 20
-809.75
 30
0.0
 11
558.4892542630223
 21
-809.75
 31
0.0
  0
LINE
  5
993
330
884
100
AcDbEntity
  8
Visible (ISO)
100
AcDbLine
 10
563.868482280256
 20
-800.2500000000008
 30
0.0
 11
558.4892542630223
 21
-800.2500000000008
 31
0.0
  0
LINE
  5
994
330
884
100
AcDbEntity
  8
Visible (ISO)
100
AcDbLine
 10
563.868482280256
 20
-790.7499999999999
 30
0.0
 11
558.4892542630223
 21
-790.7499999999999
 31
0.0
  0
SPLINE
  5
995
330
884
100
AcDbEntity
  8
Visible (ISO)
100
AcDbSpline
210
0.0
220
0.0
230
1.0
 70
     8
 71
     3
 72
    10
 73
     6
 74
     0
 42
0.0000000001
 43
0.0000000001
 40
0.667801202024563
 40
0.667801202024563
 40
0.667801202024563
 40
0.667801202024563
 40
0.7972565045619461
 40
0.7972565045619461
 40
0.8679323994344246
 40
0.8679323994344246
 40
0.8679323994344246
 40
0.8679323994344246
 10
9.726156957643979
 20
-141.6894734306902
 30
0.0
 10
7.894376441819986
 20
-141.6897245144396
 30
0.0
 10
5.603344276578354
 20
-141.6908658063998
 30
0.0
 10
5.241688944393899
 20
-141.690805246883
 30
0.0
 10
5.118673505195147
 20
-141.689562896905
 30
0.0
 10
5.000000000001818
 20
-141.6904973758733
 30
0.0
  0
LINE
  5
996
330
884
100
AcDbEntity
  8
Visible (ISO)
100
AcDbLine
 10
4.999999999997271
 20
-145.265043230589
 30
0.0
 11
5.000000000000909
 21
-141.6904973758733
 31
0.0
  0
SPLINE
  5
997
330
884
100
AcDbEntity
  8
Visible (ISO)
100
AcDbSpline
210
0.0
220
0.0
230
1.0
 70
     8
 71
     3
 72
     8
 73
     4
 74
     0
 42
0.0000000001
 43
0.0000000001
 40
1.021920917150618
 40
1.021920917150618
 40
1.021920917150618
 40
1.021920917150618
 40
1.423956488223949
 40
1.423956488223949
 40
1.423956488223949
 40
1.423956488223949
 10
4.999999999978172
 20
-141.6904973758287
 30
0.0
 10
5.391995199493067
 20
-142.52893463604
 30
0.0
 10
5.783074453435801
 20
-143.4035367122928
 30
0.0
 10
6.175033540914228
 20
-144.2434573984833
 30
0.0
  0
SPLINE
  5
998
330
884
100
AcDbEntity
  8
Visible (ISO)
100
AcDbSpline
210
0.0
220
0.0
230
1.0
 70
     8
 71
     3
 72
    10
 73
     6
 74
     0
 42
0.0000000001
 43
0.0000000001
 40
0.6238504210153331
 40
0.6238504210153331
 40
0.6238504210153331
 40
0.6238504210153331
 40
0.879621795257438
 40
0.879621795257438
 40
0.9239667963720608
 40
0.9239667963720608
 40
0.9239667963720608
 40
0.9239667963720608
 10
-5.000000000002728
 20
-141.6904973758719
 30
0.0
 10
-5.852517540081862
 20
-141.6837840472376
 30
0.0
 10
-6.705178377775155
 20
-141.690496945152
 30
0.0
 10
-7.705566297791847
 20
-141.6904949151781
 30
0.0
 10
-8.709505902207638
 20
-141.6901021787689
 30
0.0
 10
-9.726158112475786
 20
-141.6898917633421
 30
0.0
  0
LINE
  5
999
330
884
100
AcDbEntity
  8
Visible (ISO)
100
AcDbLine
 10
-5.000000000002728
 20
-141.6904973758719
 30
0.0
 11
-5.000000000002728
 21
-145.2650432305877
 31
0.0
  0
SPLINE
  5
99A
330
884
100
AcDbEntity
  8
Visible (ISO)
100
AcDbSpline
210
0.0
220
0.0
230
1.0
 70
     8
 71
     3
 72
    12
 73
     8
 74
     0
 42
0.0000000001
 43
0.0000000001
 40
0.8610893147998838
 40
0.8610893147998838
 40
0.8610893147998838
 40
0.8610893147998838
 40
1.171112635128324
 40
1.171112635128324
 40
1.886725234772438
 40
1.886725234772438
 40
2.067186920301284
 40
2.067186920301284
 40
2.067186920301284
 40
2.067186920301284
 10
-6.175044276701555
 20
-144.243477162413
 30
0.0
 10
-5.820350187149415
 20
-143.4834475685506
 30
0.0
 10
-5.338000175610432
 20
-142.424660418219
 30
0.0
 10
-5.137256705770596
 20
-141.9886512845301
 30
0.0
 10
-5.120813267668381
 20
-141.9536218982439
 30
0.0
 10
-5.03470190527878
 20
-141.765627800848
 30
0.0
 10
-5.017361947692734
 20
-141.7276349799062
 30
0.0
 10
-5.0
 20
-141.6904973758705
 30
0.0
  0
LINE
  5
99B
330
884
100
AcDbEntity
  8
Visible (ISO)
100
AcDbLine
 10
57.14999999999964
 20
-524.9018456659519
 30
0.0
 11
57.14999999999964
 21
-827.2499999999968
 31
0.0
  0
LINE
  5
99C
330
884
100
AcDbEntity
  8
Visible (ISO)
100
AcDbLine
 10
-57.15000000000054
 20
-524.9018456659519
 30
0.0
 11
-57.15000000000054
 21
-827.2499999999968
 31
0.0
  0
LINE
  5
99D
330
884
100
AcDbEntity
  8
Visible (ISO)
100
AcDbLine
 10
57.14999999999964
 20
-524.9018456659519
 30
0.0
 11
57.14999999999964
 21
-219.2123787854994
 31
0.0
  0
LINE
  5
99E
330
884
100
AcDbEntity
  8
Visible (ISO)
100
AcDbLine
 10
57.14999999999964
 20
-174.4321178475938
 30
0.0
 11
57.15000000000054
 21
0.0
 31
0.0
  0
LINE
  5
99F
330
884
100
AcDbEntity
  8
Visible (ISO)
100
AcDbLine
 10
-57.15000000000054
 20
0.0
 30
0.0
 11
-57.15000000000054
 21
-174.432117847592
 31
0.0
  0
LINE
  5
9A0
330
884
100
AcDbEntity
  8
Visible (ISO)
100
AcDbLine
 10
-57.15000000000237
 20
-219.2080795818843
 30
0.0
 11
-57.15000000000054
 21
-524.9018456659519
 31
0.0
  0
LINE
  5
9A1
330
884
100
AcDbEntity
  8
Visible (ISO)
100
AcDbLine
 10
-4.000000000001818
 20
-140.3843193436992
 30
0.0
 11
-4.000000000001818
 21
-147.0245438403858
 31
0.0
  0
LINE
  5
9A2
330
884
100
AcDbEntity
  8
Visible (ISO)
100
AcDbLine
 10
-4.000000000001818
 20
-147.0245438403858
 30
0.0
 11
3.999999999998181
 21
-147.0245438403858
 31
0.0
  0
LINE
  5
9A3
330
884
100
AcDbEntity
  8
Visible (ISO)
100
AcDbLine
 10
3.999999999998181
 20
-147.0245438403858
 30
0.0
 11
3.999999999998181
 21
-140.3843193436992
 31
0.0
  0
LINE
  5
9A4
330
884
100
AcDbEntity
  8
Visible (ISO)
100
AcDbLine
 10
3.999999999998181
 20
-140.3843193436992
 30
0.0
 11
-4.000000000001818
 21
-140.3843193436992
 31
0.0
  0
LINE
  5
9A5
330
884
100
AcDbEntity
  8
Visible (ISO)
100
AcDbLine
 10
-4.000000000001818
 20
-104.1013486284878
 30
0.0
 11
3.999999999998181
 21
-104.1013486284878
 31
0.0
  0
LINE
  5
9A6
330
884
100
AcDbEntity
  8
Visible (ISO)
100
AcDbLine
 10
3.999999999998181
 20
-104.1013486284878
 30
0.0
 11
3.999999999998181
 21
-101.6708304463732
 31
0.0
  0
LINE
  5
9A7
330
884
100
AcDbEntity
  8
Visible (ISO)
100
AcDbLine
 10
-4.000000000001818
 20
-101.6708304463732
 30
0.0
 11
-4.000000000001818
 21
-104.1013486284878
 31
0.0
  0
LINE
  5
9A8
330
884
100
AcDbEntity
  8
Visible (ISO)
100
AcDbLine
 10
3.999999999998181
 20
-101.6708304463732
 30
0.0
 11
-4.000000000001818
 21
-101.6708304463732
 31
0.0
  0
LINE
  5
9A9
330
884
100
AcDbEntity
  8
Visible (ISO)
100
AcDbLine
 10
3.999999999998181
 20
-104.1013486284878
 30
0.0
 11
3.999999999998181
 21
-140.3843193436992
 31
0.0
  0
LINE
  5
9AA
330
884
100
AcDbEntity
  8
Visible (ISO)
100
AcDbLine
 10
-4.000000000001818
 20
-104.1013486284878
 30
0.0
 11
-4.000000000001818
 21
-140.3843193436992
 31
0.0
  0
LINE
  5
9AB
330
884
100
AcDbEntity
  8
Visible (ISO)
100
AcDbLine
 10
3.999999999998181
 20
-147.0245438403858
 30
0.0
 11
3.999999999998181
 21
-170.1779285705329
 31
0.0
  0
LINE
  5
9AC
330
884
100
AcDbEntity
  8
Visible (ISO)
100
AcDbLine
 10
-4.000000000001818
 20
-147.0245438403858
 30
0.0
 11
-4.000000000001818
 21
-170.1779285705329
 31
0.0
  0
LINE
  5
9AD
330
884
100
AcDbEntity
  8
Visible (ISO)
100
AcDbLine
 10
3.999999999998181
 20
-170.1779285705329
 30
0.0
 11
-4.000000000001818
 21
-170.1779285705329
 31
0.0
  0
LINE
  5
9AE
330
884
100
AcDbEntity
  8
Visible (ISO)
100
AcDbLine
 10
-549.9999999999927
 20
-857.249999999999
 30
0.0
 11
-549.9999999999927
 21
-857.15
 31
0.0
  0
LINE
  5
9AF
330
884
100
AcDbEntity
  8
Visible (ISO)
100
AcDbLine
 10
550.0000000000055
 20
-857.249999999999
 30
0.0
 11
-549.9999999999927
 21
-857.249999999999
 31
0.0
  0
LINE
  5
9B0
330
884
100
AcDbEntity
  8
Visible (ISO)
100
AcDbLine
 10
550.0000000000055
 20
-857.249999999999
 30
0.0
 11
550.0000000000055
 21
-857.15
 31
0.0
  0
SPLINE
  5
9B1
330
884
100
AcDbEntity
  8
Visible (ISO)
100
AcDbSpline
210
0.0
220
0.0
230
1.0
 70
    24
 71
     3
 72
    10
 73
     6
 74
     0
 42
0.0000000001
 43
0.0000000001
 40
-0.0849262294128117
 40
-0.0849262294128117
 40
-0.0849262294128117
 40
-0.0849262294128117
 40
-0.059389468769144
 40
-0.059389468769144
 40
0.0
 40
0.0
 40
0.0
 40
0.0
 10
594.2668752897279
 20
-857.15
 30
0.0
 10
594.3493814198737
 20
-857.15
 30
0.0
 10
594.4319812740059
 20
-857.15
 30
0.0
 10
594.707280665234
 20
-857.15
 30
0.0
 10
594.8983390171142
 20
-857.15
 30
0.0
 10
595.0908712114697
 20
-857.15
 30
0.0
  0
SPLINE
  5
9B2
330
884
100
AcDbEntity
  8
Visible (ISO)
100
AcDbSpline
210
0.0
220
0.0
230
1.0
 70
    24
 71
     3
 72
    10
 73
     6
 74
     0
 42
0.0000000001
 43
0.0000000001
 40
-0.1121172946273215
 40
-0.1121172946273215
 40
-0.1121172946273215
 40
-0.1121172946273215
 40
-0.0558422615139052
 40
-0.0558422615139052
 40
-0.0274810204132397
 40
-0.0274810204132397
 40
-0.0274810204132397
 40
-0.0274810204132397
 10
-595.0908712114578
 20
-857.15
 30
0.0
 10
-594.9078091958353
 20
-857.15
 30
0.0
 10
-594.726008443119
 20
-857.15
 30
0.0
 10
-594.450756929551
 20
-857.15
 30
0.0
 10
-594.3587579990417
 20
-857.15
 30
0.0
 10
-594.2668752897097
 20
-857.15
 30
0.0
  0
SPLINE
  5
9B3
330
884
100
AcDbEntity
  8
Visible (ISO)
100
AcDbSpline
210
0.0
220
0.0
230
1.0
 70
     8
 71
     3
 72
    11
 73
     7
 74
     0
 42
0.0000000001
 43
0.0000000001
 40
0.182828716744049
 40
0.182828716744049
 40
0.182828716744049
 40
0.182828716744049
 40
1.075470664001185
 40
1.075470664001185
 40
1.075470664001185
 40
1.570796326794889
 40
1.570796326794889
 40
1.570796326794889
 40
1.570796326794889
 10
595.0908712114697
 20
-857.15
 30
0.0
 10
596.8464003744066
 20
-856.825414199196
 30
0.0
 10
598.4303058525511
 20
-855.6726268932511
 30
0.0
 10
599.2788837782527
 20
-854.1019091948646
 30
0.0
 10
599.7497583823105
 20
-853.230320326109
 30
0.0
 10
600.0000000000072
 20
-852.2406513255859
 30
0.0
 10
600.0000000000072
 20
-851.2499999999977
 30
0.0
  0
LINE
  5
9B4
330
884
100
AcDbEntity
  8
Visible (ISO)
100
AcDbLine
 10
600.0000000000072
 20
-851.2499999999999
 30
0.0
 11
600.0000000000072
 21
-833.2499999999999
 31
0.0
  0
LINE
  5
9B5
330
884
100
AcDbEntity
  8
Visible (ISO)
100
AcDbLine
 10
597.0000000000045
 20
-851.2499999999999
 30
0.0
 11
597.0000000000045
 21
-833.2499999999999
 31
0.0
  0
LINE
  5
9B6
330
884
100
AcDbEntity
  8
Visible (ISO)
100
AcDbLine
 10
597.0000000000045
 20
-851.2499999999999
 30
0.0
 11
600.0000000000072
 21
-851.2499999999999
 31
0.0
  0
LINE
  5
9B7
330
884
100
AcDbEntity
  8
Visible (ISO)
100
AcDbLine
 10
-596.292893218806
 20
-851.2499999999999
 30
0.0
 11
-596.292893218806
 21
-833.2499999999999
 31
0.0
  0
LINE
  5
9B8
330
884
100
AcDbEntity
  8
Visible (ISO)
100
AcDbLine
 10
596.2928932188197
 20
-833.2499999999999
 30
0.0
 11
596.2928932188197
 21
-851.2499999999999
 31
0.0
  0
LINE
  5
9B9
330
884
100
AcDbEntity
  8
Visible (ISO)
100
AcDbLine
 10
-599.9999999999927
 20
-833.2499999999999
 30
0.0
 11
-599.9999999999927
 21
-851.2499999999999
 31
0.0
  0
LINE
  5
9BA
330
884
100
AcDbEntity
  8
Visible (ISO)
100
AcDbLine
 10
-596.9999999999926
 20
-851.2499999999999
 30
0.0
 11
-596.9999999999926
 21
-833.2499999999999
 31
0.0
  0
SPLINE
  5
9BB
330
884
100
AcDbEntity
  8
Visible (ISO)
100
AcDbSpline
210
0.0
220
0.0
230
1.0
 70
     8
 71
     3
 72
    11
 73
     7
 74
     0
 42
0.0000000001
 43
0.0000000001
 40
0.5892120620557081
 40
0.5892120620557081
 40
0.5892120620557081
 40
0.5892120620557081
 40
1.063948950641077
 40
1.063948950641077
 40
1.063948950641077
 40
1.570796326794889
 40
1.570796326794889
 40
1.570796326794889
 40
1.570796326794889
 10
595.6621555982155
 20
-853.735922286714
 30
0.0
 10
596.0572244113655
 20
-853.4733319213469
 30
0.0
 10
596.3923892316834
 20
-853.1213227614562
 30
0.0
 10
596.622837621634
 20
-852.7062701708709
 30
0.0
 10
596.8688731933261
 20
-852.2631440486712
 30
0.0
 10
597.0000000000045
 20
-851.756847376153
 30
0.0
 10
597.0000000000045
 20
-851.2499999999977
 30
0.0
  0
SPLINE
  5
9BC
330
884
100
AcDbEntity
  8
Visible (ISO)
100
AcDbSpline
210
0.0
220
0.0
230
1.0
 70
     8
 71
     3
 72
    11
 73
     7
 74
     0
 42
0.0000000001
 43
0.0000000001
 40
0.0
 40
0.0
 40
0.0
 40
0.0
 40
0.8926419472571447
 40
0.8926419472571447
 40
0.8926419472571447
 40
1.387967610050857
 40
1.387967610050857
 40
1.387967610050857
 40
1.387967610050857
 10
596.2928932188197
 20
-851.2499999999977
 30
0.0
 10
595.8585630571506
 20
-853.0352838945132
 30
0.0
 10
595.4242328954842
 20
-854.802381362187
 30
0.0
 10
594.9899027338142
 20
-855.9223914422108
 30
0.0
 10
594.74889358579
 20
-856.5438833370617
 30
0.0
 10
594.5078844377658
 20
-856.9698878313847
 30
0.0
 10
594.2668752897406
 20
-857.15
 30
0.0
  0
SPLINE
  5
9BD
330
884
100
AcDbEntity
  8
Visible (ISO)
100
AcDbSpline
210
0.0
220
0.0
230
1.0
 70
     8
 71
     3
 72
    11
 73
     7
 74
     0
 42
0.0000000001
 43
0.0000000001
 40
0.182828716744051
 40
0.182828716744051
 40
0.182828716744051
 40
0.182828716744051
 40
1.075470664001195
 40
1.075470664001195
 40
1.075470664001195
 40
1.570796326794905
 40
1.570796326794905
 40
1.570796326794905
 40
1.570796326794905
 10
-594.2668752897271
 20
-857.15
 30
0.0
 10
-594.7012054513952
 20
-856.825414199196
 30
0.0
 10
-595.1355356130643
 20
-855.6726268932511
 30
0.0
 10
-595.5698657747325
 20
-854.1019091948646
 30
0.0
 10
-595.8108749227567
 20
-853.230320326109
 30
0.0
 10
-596.0518840707818
 20
-852.2406513255859
 30
0.0
 10
-596.292893218806
 20
-851.2499999999977
 30
0.0
  0
SPLINE
  5
9BE
330
884
100
AcDbEntity
  8
Visible (ISO)
100
AcDbSpline
210
0.0
220
0.0
230
1.0
 70
     8
 71
     3
 72
    11
 73
     7
 74
     0
 42
0.0000000001
 43
0.0000000001
 40
0.0
 40
0.0
 40
0.0
 40
0.0
 40
0.8926419472571389
 40
0.8926419472571389
 40
0.8926419472571389
 40
1.387967610050842
 40
1.387967610050842
 40
1.387967610050842
 40
1.387967610050842
 10
-599.9999999999927
 20
-851.2499999999977
 30
0.0
 10
-599.9999999999927
 20
-853.0352838945132
 30
0.0
 10
-599.1543986304431
 20
-854.802381362187
 30
0.0
 10
-597.7641410986698
 20
-855.9223914422108
 30
0.0
 10
-596.9926893026868
 20
-856.5438833370617
 30
0.0
 10
-596.0650116816177
 20
-856.9698878313847
 30
0.0
 10
-595.0908712114578
 20
-857.15
 30
0.0
  0
LINE
  5
9BF
330
884
100
AcDbEntity
  8
Visible (ISO)
100
AcDbLine
 10
-596.9999999999926
 20
-851.2499999999999
 30
0.0
 11
-599.9999999999927
 21
-851.2499999999999
 31
0.0
  0
SPLINE
  5
9C0
330
884
100
AcDbEntity
  8
Visible (ISO)
100
AcDbSpline
210
0.0
220
0.0
230
1.0
 70
     8
 71
     3
 72
    11
 73
     7
 74
     0
 42
0.0000000001
 43
0.0000000001
 40
0.589212062055672
 40
0.589212062055672
 40
0.589212062055672
 40
0.589212062055672
 40
1.063948950641077
 40
1.063948950641077
 40
1.063948950641077
 40
1.570796326794889
 40
1.570796326794889
 40
1.570796326794889
 40
1.570796326794889
 10
-595.6621555982046
 20
-853.735922286714
 30
0.0
 10
-596.0572244113536
 20
-853.4733319213469
 30
0.0
 10
-596.3923892316688
 20
-853.1213227614562
 30
0.0
 10
-596.6228376216213
 20
-852.7062701708709
 30
0.0
 10
-596.8688731933143
 20
-852.2631440486712
 30
0.0
 10
-596.9999999999926
 20
-851.756847376153
 30
0.0
 10
-596.9999999999926
 20
-851.2499999999977
 30
0.0
  0
LINE
  5
9C1
330
884
100
AcDbEntity
  8
Visible (ISO)
100
AcDbLine
 10
-594.2668752897271
 20
-857.15
 30
0.0
 11
594.2668752897406
 21
-857.15
 31
0.0
  0
LINE
  5
9C2
330
884
100
AcDbEntity
  8
Visible (ISO)
100
AcDbLine
 10
-593.292893218806
 20
-827.25
 30
0.0
 11
593.2928932188197
 21
-827.25
 31
0.0
  0
SPLINE
  5
9C3
330
884
100
AcDbEntity
  8
Visible (ISO)
100
AcDbSpline
210
0.0
220
0.0
230
1.0
 70
     8
 71
     3
 72
    11
 73
     7
 74
     0
 42
0.0000000001
 43
0.0000000001
 40
-0.0000000000000059
 40
-0.0000000000000059
 40
-0.0000000000000059
 40
-0.0000000000000059
 40
0.8504171731878871
 40
0.8504171731878871
 40
0.8504171731878871
 40
1.570796326794896
 40
1.570796326794896
 40
1.570796326794896
 40
1.570796326794896
 10
-596.292893218806
 20
-833.2499999999999
 30
0.0
 10
-596.292893218806
 20
-831.5491656536227
 30
0.0
 10
-595.9110380879247
 20
-829.862654837334
 30
0.0
 10
-595.2719022420751
 20
-828.7406659978119
 30
0.0
 10
-594.7304972067723
 20
-827.7902414343698
 30
0.0
 10
-594.0132723724145
 20
-827.25
 30
0.0
 10
-593.292893218806
 20
-827.25
 30
0.0
  0
SPLINE
  5
9C4
330
884
100
AcDbEntity
  8
Visible (ISO)
100
AcDbSpline
210
0.0
220
0.0
230
1.0
 70
     8
 71
     3
 72
    11
 73
     7
 74
     0
 42
0.0000000001
 43
0.0000000001
 40
-1.570796326794896
 40
-1.570796326794896
 40
-1.570796326794896
 40
-1.570796326794896
 40
-0.7203791536070036
 40
-0.7203791536070036
 40
-0.7203791536070036
 40
0.0000000000000059
 40
0.0000000000000059
 40
0.0000000000000059
 40
0.0000000000000059
 10
593.2928932188197
 20
-827.25
 30
0.0
 10
594.143310392008
 20
-827.25
 30
0.0
 10
594.9865658001508
 20
-828.0137102617613
 30
0.0
 10
595.547560219913
 20
-829.2919819534622
 30
0.0
 10
596.0227725016339
 20
-830.3747920240708
 30
0.0
 10
596.2928932188197
 20
-831.8092416927852
 30
0.0
 10
596.2928932188197
 20
-833.2499999999999
 30
0.0
  0
SPLINE
  5
9C5
330
884
100
AcDbEntity
  8
Visible (ISO)
100
AcDbSpline
210
0.0
220
0.0
230
1.0
 70
     8
 71
     3
 72
    11
 73
     7
 74
     0
 42
0.0000000001
 43
0.0000000001
 40
-1.570796326794896
 40
-1.570796326794896
 40
-1.570796326794896
 40
-1.570796326794896
 40
-0.7203791536070041
 40
-0.7203791536070041
 40
-0.7203791536070041
 40
0.0000000000000059
 40
0.0000000000000059
 40
0.0000000000000059
 40
0.0000000000000059
 10
-593.9999999999927
 20
-827.25
 30
0.0
 10
-595.7008343463685
 20
-827.25
 30
0.0
 10
-597.3873451626604
 20
-828.0137102617613
 30
0.0
 10
-598.5093340021803
 20
-829.2919819534622
 30
0.0
 10
-599.4597585656229
 20
-830.3747920240708
 30
0.0
 10
-599.9999999999927
 20
-831.8092416927852
 30
0.0
 10
-599.9999999999927
 20
-833.2499999999999
 30
0.0
  0
LINE
  5
9C6
330
884
100
AcDbEntity
  8
Visible (ISO)
100
AcDbLine
 10
-593.292893218806
 20
-827.25
 30
0.0
 11
-593.9999999999927
 21
-827.25
 31
0.0
  0
LINE
  5
9C7
330
884
100
AcDbEntity
  8
Visible (ISO)
100
AcDbLine
 10
-593.9999999999927
 20
-827.4190481051531
 30
0.0
 11
-593.9999999999927
 21
-827.25
 31
0.0
  0
ARC
  5
9C8
330
884
100
AcDbEntity
  8
Visible (ISO)
100
AcDbCircle
 10
-593.9999999999845
 20
-833.2499999999999
 30
0.0
 40
2.999999999999998
100
AcDbArc
 50
134.2668205322345
 51
180.0
  0
SPLINE
  5
9C9
330
884
100
AcDbEntity
  8
Visible (ISO)
100
AcDbSpline
210
0.0
220
0.0
230
1.0
 70
     8
 71
     3
 72
    11
 73
     7
 74
     0
 42
0.0000000001
 43
0.0000000001
 40
-0.0000000000000059
 40
-0.0000000000000059
 40
-0.0000000000000059
 40
-0.0000000000000059
 40
0.8504171731878866
 40
0.8504171731878866
 40
0.8504171731878866
 40
1.570796326794896
 40
1.570796326794896
 40
1.570796326794896
 40
1.570796326794896
 10
600.0000000000072
 20
-833.2499999999999
 30
0.0
 10
600.0000000000072
 20
-831.5491656536227
 30
0.0
 10
599.2362897382435
 20
-829.862654837334
 30
0.0
 10
597.9580180465427
 20
-828.7406659978119
 30
0.0
 10
596.8752079759333
 20
-827.7902414343698
 30
0.0
 10
595.4407583072216
 20
-827.25
 30
0.0
 10
594.0000000000073
 20
-827.25
 30
0.0
  0
LINE
  5
9CA
330
884
100
AcDbEntity
  8
Visible (ISO)
100
AcDbLine
 10
594.0000000000073
 20
-827.4190481051531
 30
0.0
 11
594.0000000000073
 21
-827.25
 31
0.0
  0
ARC
  5
9CB
330
884
100
AcDbEntity
  8
Visible (ISO)
100
AcDbCircle
 10
593.9999999999972
 20
-833.2499999999999
 30
0.0
 40
3.00000000000002
100
AcDbArc
 50
0.0
 51
45.7331794677655
  0
LINE
  5
9CC
330
884
100
AcDbEntity
  8
Visible (ISO)
100
AcDbLine
 10
594.0000000000073
 20
-827.25
 30
0.0
 11
593.2928932188197
 21
-827.25
 31
0.0
  0
ARC
  5
9CD
330
884
100
AcDbEntity
  8
Visible (ISO)
100
AcDbCircle
 10
0.0000000000009095
 20
-1235.020577302117
 30
0.0
 40
245.0
100
AcDbArc
 50
111.5520888872395
 51
68.44791111276045
  0
CIRCLE
  5
9CE
330
884
100
AcDbEntity
  8
Visible (ISO)
100
AcDbCircle
 10
0.0000000000009095
 20
-1235.020577302117
 30
0.0
 40
225.0
  0
ARC
  5
9CF
330
884
100
AcDbEntity
  8
Visible (ISO)
100
AcDbCircle
 10
0.0000000000009095
 20
-1235.020577302117
 30
0.0
 40
244.9999999999998
100
AcDbArc
 50
68.44791111276045
 51
111.5520888872395
  0
LINE
  5
9D0
330
884
100
AcDbEntity
  8
Visible (ISO)
100
AcDbLine
 10
90.0000000000009
 20
-867.1499999999987
 30
0.0
 11
90.0000000000009
 21
-1007.149999999999
 31
0.0
  0
LINE
  5
9D1
330
884
100
AcDbEntity
  8
Visible (ISO)
100
AcDbLine
 10
-90.0
 20
-1007.149999999999
 30
0.0
 11
-90.0
 21
-867.1499999999987
 31
0.0
  0
LINE
  5
9D2
330
884
100
AcDbEntity
  8
Visible (ISO)
100
AcDbLine
 10
-90.0
 20
-857.249999999999
 30
0.0
 11
-90.0
 21
-867.1499999999987
 31
0.0
  0
LINE
  5
9D3
330
884
100
AcDbEntity
  8
Visible (ISO)
100
AcDbLine
 10
90.0000000000009
 20
-867.1499999999987
 30
0.0
 11
90.0000000000009
 21
-857.249999999999
 31
0.0
  0
SPLINE
  5
9D4
330
884
100
AcDbEntity
  8
Visible (ISO)
100
AcDbSpline
210
0.0
220
0.0
230
1.0
 70
     8
 71
     3
 72
    14
 73
    10
 74
     0
 42
0.0000000001
 43
0.0000000001
 40
3.160178086772181
 40
3.160178086772181
 40
3.160178086772181
 40
3.160178086772181
 40
3.232954389081711
 40
3.232954389081711
 40
3.359580109930563
 40
3.359580109930563
 40
3.486205830779412
 40
3.486205830779412
 40
3.612831551628261
 40
3.612831551628261
 40
3.612831551628261
 40
3.612831551628261
 10
-244.5885483357033
 20
-1220.827550034044
 30
0.0
 10
-244.4418856006341
 20
-1213.095586625251
 30
0.0
 10
-244.0079796132395
 20
-1205.368875609429
 30
0.0
 10
-242.0352563733914
 20
-1184.268809274884
 30
0.0
 10
-239.9156708992023
 20
-1170.947824980361
 30
0.0
 10
-233.9770092067529
 20
-1144.675804726581
 30
0.0
 10
-230.1579608548436
 20
-1131.724884194013
 30
0.0
 10
-220.8820300668995
 20
-1106.400820157826
 30
0.0
 10
-215.4251906903746
 20
-1094.027786810675
 30
0.0
 10
-209.1934382407544
 20
-1082.042814942196
 30
0.0
  0
LINE
  5
9D5
330
884
100
AcDbEntity
  8
Visible (ISO)
100
AcDbLine
 10
-209.1934382407572
 20
-1082.042814942197
 30
0.0
 11
-99.87989671246578
 21
-871.8098619082443
 31
0.0
  0
LINE
  5
9D6
330
884
100
AcDbEntity
  8
Visible (ISO)
100
AcDbLine
 10
-190.7714517668155
 20
-1081.295975527443
 30
0.0
 11
-90.0
 21
-887.4912593846261
 31
0.0
  0
SPLINE
  5
9D7
330
884
100
AcDbEntity
  8
Visible (ISO)
100
AcDbSpline
210
0.0
220
0.0
230
1.0
 70
     8
 71
     3
 72
    14
 73
    10
 74
     0
 42
0.0000000001
 43
0.0000000001
 40
3.612831551628254
 40
3.612831551628254
 40
3.612831551628254
 40
3.612831551628254
 40
3.83274303737954
 40
3.83274303737954
 40
4.052654523130827
 40
4.052654523130827
 40
4.272566008882114
 40
4.272566008882114
 40
4.362114482389015
 40
4.362114482389015
 40
4.362114482389015
 40
4.362114482389015
 10
-99.87989671246578
 20
-871.8098619082461
 30
0.0
 10
-99.27336075422864
 20
-870.6433655726659
 30
0.0
 10
-98.53695638923364
 20
-869.5455201861687
 30
0.0
 10
-96.84312442442024
 20
-867.539133053283
 30
0.0
 10
-95.88580848622132
 20
-866.630638118851
 30
0.0
 10
-93.79851719100406
 20
-865.0440723178057
 30
0.0
 10
-92.66863949640356
 20
-864.3660124440398
 30
0.0
 10
-90.99560251821094
 20
-863.5945457077177
 30
0.0
 10
-90.50171514970225
 20
-863.3927655508678
 30
0.0
 10
-90.0
 20
-863.21314886852
 30
0.0
  0
SPLINE
  5
9D8
330
884
100
AcDbEntity
  8
Visible (ISO)
100
AcDbSpline
210
0.0
220
0.0
230
1.0
 70
     8
 71
     3
 72
    14
 73
    10
 74
     0
 42
0.0000000001
 43
0.0000000001
 40
5.811946409141117
 40
5.811946409141117
 40
5.811946409141117
 40
5.811946409141117
 40
5.938572129989966
 40
5.938572129989966
 40
6.065197850838817
 40
6.065197850838817
 40
6.191823571687668
 40
6.191823571687668
 40
6.264599873997265
 40
6.264599873997265
 40
6.264599873997265
 40
6.264599873997265
 10
209.1934382407589
 20
-1082.042814942196
 30
0.0
 10
215.4251906903773
 20
-1094.027786810675
 30
0.0
 10
220.882030066904
 20
-1106.400820157827
 30
0.0
 10
230.1579608548445
 20
-1131.724884194013
 30
0.0
 10
233.9770092067538
 20
-1144.675804726581
 30
0.0
 10
239.9156708992041
 20
-1170.947824980361
 30
0.0
 10
242.0352563733932
 20
-1184.268809274884
 30
0.0
 10
244.0079796132395
 20
-1205.368875609437
 30
0.0
 10
244.4418856006341
 20
-1213.095586625265
 30
0.0
 10
244.588548335707
 20
-1220.827550034064
 30
0.0
  0
LINE
  5
9D9
330
884
100
AcDbEntity
  8
Visible (ISO)
100
AcDbLine
 10
99.8798967124685
 20
-871.8098619082443
 30
0.0
 11
209.1934382407562
 21
-1082.042814942196
 31
0.0
  0
LINE
  5
9DA
330
884
100
AcDbEntity
  8
Visible (ISO)
100
AcDbLine
 10
90.0000000000009
 20
-887.4912593846261
 30
0.0
 11
190.77145176682
 21
-1081.295975527446
 31
0.0
  0
SPLINE
  5
9DB
330
884
100
AcDbEntity
  8
Visible (ISO)
100
AcDbSpline
210
0.0
220
0.0
230
1.0
 70
     8
 71
     3
 72
    14
 73
    10
 74
     0
 42
0.0000000001
 43
0.0000000001
 40
5.062663478380367
 40
5.062663478380367
 40
5.062663478380367
 40
5.062663478380367
 40
5.152211951887257
 40
5.152211951887257
 40
5.372123437638541
 40
5.372123437638541
 40
5.592034923389824
 40
5.592034923389824
 40
5.811946409141111
 40
5.811946409141111
 40
5.811946409141111
 40
5.811946409141111
 10
90.0000000000009
 20
-863.21314886852
 30
0.0
 10
90.50171514970406
 20
-863.3927655508687
 30
0.0
 10
90.99560251821277
 20
-863.5945457077186
 30
0.0
 10
92.66863949640628
 20
-864.3660124440398
 30
0.0
 10
93.79851719100406
 20
-865.0440723178057
 30
0.0
 10
95.88580848622314
 20
-866.630638118851
 30
0.0
 10
96.84312442442205
 20
-867.539133053282
 30
0.0
 10
98.53695638923547
 20
-869.5455201861687
 30
0.0
 10
99.27336075423045
 20
-870.6433655726668
 30
0.0
 10
99.8798967124685
 20
-871.8098619082443
 30
0.0
  0
LINE
  5
9DC
330
884
100
AcDbEntity
  8
0
100
AcDbLine
 10
37.74193362415008
 20
-197.2679276556587
 30
0.0
 11
558.9586452437989
 21
-786.600962420398
 31
0.0
  0
LINE
  5
9DD
330
884
100
AcDbEntity
  8
0
100
AcDbLine
 10
579.883356175842
 20
-765.189246861798
 30
0.0
 11
57.7142538951648
 21
-174.882521181974
 31
0.0
  0
LINE
  5
9DE
330
884
100
AcDbEntity
  8
0
100
AcDbLine
 10
-37.74193362415463
 20
-197.2679276556587
 30
0.0
 11
-558.8270212202296
 21
-786.3367079735303
 31
0.0
  0
LINE
  5
9DF
330
884
100
AcDbEntity
  8
0
100
AcDbLine
 10
-581.4819656508206
 20
-767.5194546634143
 30
0.0
 11
-57.71425400559746
 21
-174.8825212805
 31
0.0
  0
ARC
  5
9E0
330
884
100
AcDbEntity
  8
Visible (ISO)
100
AcDbCircle
 10
0.0
 20
0.0
 30
0.0
 40
57.14999999999993
100
AcDbArc
 50
0.0
 51
180.0
  0
ENDBLK
  5
886
330
884
100
AcDbEntity
  8
0
100
AcDbBlockEnd
  0
ENDSEC
  0
SECTION
  2
ENTITIES
  0
INSERT
  5
9E1
330
6C
100
AcDbEntity
  8
0
100
AcDbBlockReference
  2
2010E_Kosz-do-koszykowki-z-tablica-laminatowa
 10
7567.931311208386
 20
3901.719339654301
 30
0.0
  0
ENDSEC
  0
SECTION
  2
OBJECTS
  0
DICTIONARY
  5
C
330
0
100
AcDbDictionary
281
     1
  3
ACAD_COLOR
350
63
  3
ACAD_GROUP
350
D
  3
ACAD_LAYOUT
350
62
  3
ACAD_MATERIAL
350
10
  3
ACAD_MLEADERSTYLE
350
66
  3
ACAD_MLINESTYLE
350
5F
  3
ACAD_PLOTSETTINGS
350
61
  3
ACAD_PLOTSTYLENAME
350
E
  3
ACAD_SCALELIST
350
42
  3
ACAD_TABLESTYLE
350
64
  3
ACAD_VISUALSTYLE
350
29
  3
ACDB_RECOMPOSE_DATA
350
9E4
  3
AcDbVariableDictionary
350
442
  3
DWGPROPS
350
9E5
  0
DICTIONARY
  5
403
330
8
100
AcDbDictionary
280
     1
281
     1
  0
DICTIONARY
  5
4E9
330
6C
100
AcDbDictionary
280
     1
281
     1
  3
ACAD_SORTENTS
360
4EA
  0
DICTIONARY
  5
63
102
{ACAD_REACTORS
330
C
102
}
330
C
100
AcDbDictionary
281
     1
  0
DICTIONARY
  5
D
102
{ACAD_REACTORS
330
C
102
}
330
C
100
AcDbDictionary
281
     1
  0
DICTIONARY
  5
62
102
{ACAD_REACTORS
330
C
102
}
330
C
100
AcDbDictionary
281
     1
  3
Layout1
350
6B
  3
Layout2
350
73
  3
Model
350
6F
  0
DICTIONARY
  5
10
102
{ACAD_REACTORS
330
C
102
}
330
C
100
AcDbDictionary
281
     1
  3
ByBlock
350
19
  3
ByLayer
350
11
  3
Global
350
21
  0
DICTIONARY
  5
66
102
{ACAD_REACTORS
330
C
102
}
330
C
100
AcDbDictionary
281
     1
  3
Standard
350
67
  0
DICTIONARY
  5
5F
102
{ACAD_REACTORS
330
C
102
}
330
C
100
AcDbDictionary
281
     1
  3
Standard
350
60
  0
DICTIONARY
  5
61
102
{ACAD_REACTORS
330
C
102
}
330
C
100
AcDbDictionary
281
     1
  0
ACDBDICTIONARYWDFLT
  5
E
102
{ACAD_REACTORS
330
C
102
}
330
C
100
AcDbDictionary
281
     1
  3
Normal
350
F
100
AcDbDictionaryWithDefault
340
F
  0
DICTIONARY
  5
42
102
{ACAD_REACTORS
330
C
102
}
330
C
100
AcDbDictionary
281
     1
  3
A0
350
43
  3
A1
350
44
  3
A2
350
45
  3
A3
350
46
  3
A4
350
47
  3
A5
350
48
  3
A6
350
49
  3
A7
350
4A
  3
A8
350
4B
  3
A9
350
4C
  3
B0
350
4D
  3
B1
350
4E
  3
B2
350
4F
  3
B3
350
50
  3
B4
350
51
  3
B5
350
52
  3
B6
350
53
  0
DICTIONARY
  5
64
102
{ACAD_REACTORS
330
C
102
}
330
C
100
AcDbDictionary
281
     1
  3
Standard
350
65
  0
DICTIONARY
  5
29
102
{ACAD_REACTORS
330
C
102
}
330
C
100
AcDbDictionary
281
     1
  3
2dWireframe
350
2F
  3
Basic
350
2E
  3
Brighten
350
35
  3
ColorChange
350
39
  3
Conceptual
350
32
  3
Dim
350
34
  3
EdgeColorOff
350
41
  3
Facepattern
350
38
  3
Flat
350
2A
  3
FlatWithEdges
350
2B
  3
Gouraud
350
2C
  3
GouraudWithEdges
350
2D
  3
Hidden
350
31
  3
JitterOff
350
3F
  3
Linepattern
350
37
  3
OverhangOff
350
40
  3
Realistic
350
33
  3
Shaded
350
3E
  3
Shaded with edges
350
3D
  3
Shades of Gray
350
3A
  3
Sketchy
350
3B
  3
Thicken
350
36
  3
Wireframe
350
30
  3
X-Ray
350
3C
  0
XRECORD
  5
9E4
102
{ACAD_REACTORS
330
C
102
}
330
C
100
AcDbXrecord
280
     1
 90
        1
330
65
  0
DICTIONARY
  5
442
102
{ACAD_REACTORS
330
C
102
}
330
C
100
AcDbDictionary
281
     1
  3
CANNOSCALE
350
446
  3
CMLEADERSTYLE
350
444
  3
CTABLESTYLE
350
443
  3
DIMASSOC
350
44D
  3
HIDETEXT
350
44C
  3
INDEXCTL
350
44B
  3
LAYEREVAL
350
448
  3
LAYERNOTIFY
350
449
  3
LIGHTINGUNITS
350
447
  3
MSLTSCALE
350
445
  3
SORTENTS
350
44A
  3
XCLIPFRAME
350
9E2
  0
XRECORD
  5
9E5
102
{ACAD_REACTORS
330
C
102
}
330
C
100
AcDbXrecord
280
     1
  1
DWGPROPS COOKIE
  2

  3

  4
Maruszak Marcin
  6

  7

  8
Natalia
  9
v1
300
Menadżer=
301
Firma=Muller Jelcz-Laskowice Sp.z o.o.
302
Kategoria=
303
Numer części=
304
Opis=
305
Projekt=
306
Projektant=Maruszak Marcin
307
Inżynier=Maruszak Marcin
308
Zatwierdził=Ośkiewicz Ryszard
309
Centrum kosztów=
 40
0.0076506365740741
 41
2458683.333915486
 42
2458683.395858206
  1
WWW.MULLER.COM.PL
 90
       19
300
Dostawca=
300
Stan użytkownika=
300
Stan projektu=PracaWToku
300
Sprawdził=
300
Zatwierdził konstrukcję=
300
Zatwierdził do produkcji=
300
Kolor=szary
300
Stanowisko=Ploter
300
mat.=
  0
SORTENTSTABLE
  5
4EA
102
{ACAD_REACTORS
330
4E9
102
}
330
4E9
100
AcDbSortentsTable
330
6C
  0
LAYOUT
  5
6B
102
{ACAD_XDICTIONARY
360
A17
102
}
102
{ACAD_REACTORS
330
62
102
}
330
62
100
AcDbPlotSettings
  1

  2

  4

  6

 40
0.0
 41
0.0
 42
0.0
 43
0.0
 44
0.0
 45
0.0
 46
0.0
 47
0.0
 48
0.0
 49
0.0
140
0.0
141
0.0
142
1.0
143
1.0
 70
   688
 72
     0
 73
     0
 74
     5
  7

 75
    16
147
1.0
148
0.0
149
0.0
100
AcDbLayout
  1
Layout1
 70
     1
 71
     1
 10
0.0
 20
0.0
 11
8910.0
 21
6300.0
 12
0.0
 22
0.0
 32
0.0
 14
0.0
 24
0.0
 34
0.0
 15
8910.0
 25
6300.0
 35
0.0
146
0.0
 13
0.0
 23
0.0
 33
0.0
 16
1.0
 26
0.0
 36
0.0
 17
0.0
 27
1.0
 37
0.0
 76
     0
330
68
  0
LAYOUT
  5
73
102
{ACAD_XDICTIONARY
360
A1B
102
}
102
{ACAD_REACTORS
330
62
102
}
330
62
100
AcDbPlotSettings
  1

  2

  4

  6

 40
0.0
 41
0.0
 42
0.0
 43
0.0
 44
0.0
 45
0.0
 46
0.0
 47
0.0
 48
0.0
 49
0.0
140
0.0
141
0.0
142
1.0
143
1.0
 70
   688
 72
     0
 73
     0
 74
     5
  7

 75
    16
147
1.0
148
0.0
149
0.0
100
AcDbLayout
  1
Layout2
 70
     1
 71
     2
 10
0.0
 20
0.0
 11
12.0
 21
9.0
 12
0.0
 22
0.0
 32
0.0
 14
0.0
 24
0.0
 34
0.0
 15
0.0
 25
0.0
 35
0.0
146
0.0
 13
0.0
 23
0.0
 33
0.0
 16
1.0
 26
0.0
 36
0.0
 17
0.0
 27
1.0
 37
0.0
 76
     0
330
70
  0
LAYOUT
  5
6F
102
{ACAD_XDICTIONARY
360
A19
102
}
102
{ACAD_REACTORS
330
62
102
}
330
62
100
AcDbPlotSettings
  1

  2

  4

  6

 40
0.0
 41
0.0
 42
0.0
 43
0.0
 44
0.0
 45
0.0
 46
0.0
 47
0.0
 48
0.0
 49
0.0
140
0.0
141
0.0
142
1.0
143
1.0
 70
  1712
 72
     0
 73
     0
 74
     0
  7

 75
     0
147
1.0
148
0.0
149
0.0
100
AcDbLayout
  1
Model
 70
     1
 71
     0
 10
0.0
 20
0.0
 11
12.0
 21
9.0
 12
0.0
 22
0.0
 32
0.0
 14
0.0
 24
0.0
 34
0.0
 15
0.0
 25
0.0
 35
0.0
146
0.0
 13
0.0
 23
0.0
 33
0.0
 16
1.0
 26
0.0
 36
0.0
 17
0.0
 27
1.0
 37
0.0
 76
     0
330
6C
331
57
  0
MATERIAL
  5
19
102
{ACAD_XDICTIONARY
360
1A
102
}
102
{ACAD_REACTORS
330
10
102
}
330
10
100
AcDbMaterial
  1
ByBlock
 72
     0
 43
0.0208333333333333
 43
0.0
 43
0.0
 43
0.0
 43
0.0
 43
0.0208333333333333
 43
0.0
 43
0.0
 43
0.0
 43
0.0
 43
1.0
 43
0.0
 43
0.0
 43
0.0
 43
0.0
 43
1.0
 77
     0
 47
0.0208333333333333
 47
0.0
 47
0.0
 47
0.0
 47
0.0
 47
0.0208333333333333
 47
0.0
 47
0.0
 47
0.0
 47
0.0
 47
1.0
 47
0.0
 47
0.0
 47
0.0
 47
0.0
 47
1.0
171
     0
 49
0.0208333333333333
 49
0.0
 49
0.0
 49
0.0
 49
0.0
 49
0.0208333333333333
 49
0.0
 49
0.0
 49
0.0
 49
0.0
 49
1.0
 49
0.0
 49
0.0
 49
0.0
 49
0.0
 49
1.0
175
     0
142
0.0208333333333333
142
0.0
142
0.0
142
0.0
142
0.0
142
0.0208333333333333
142
0.0
142
0.0
142
0.0
142
0.0
142
1.0
142
0.0
142
0.0
142
0.0
142
0.0
142
1.0
179
     0
144
0.0208333333333333
144
0.0
144
0.0
144
0.0
144
0.0
144
0.0208333333333333
144
0.0
144
0.0
144
0.0
144
0.0
144
1.0
144
0.0
144
0.0
144
0.0
144
0.0
144
1.0
147
0.0208333333333333
147
0.0
147
0.0
147
0.0
147
0.0
147
0.0208333333333333
147
0.0
147
0.0
147
0.0
147
0.0
147
1.0
147
0.0
147
0.0
147
0.0
147
0.0
147
1.0
  0
MATERIAL
  5
11
102
{ACAD_XDICTIONARY
360
12
102
}
102
{ACAD_REACTORS
330
10
102
}
330
10
100
AcDbMaterial
  1
ByLayer
 72
     0
 43
0.0208333333333333
 43
0.0
 43
0.0
 43
0.0
 43
0.0
 43
0.0208333333333333
 43
0.0
 43
0.0
 43
0.0
 43
0.0
 43
1.0
 43
0.0
 43
0.0
 43
0.0
 43
0.0
 43
1.0
 77
     0
 47
0.0208333333333333
 47
0.0
 47
0.0
 47
0.0
 47
0.0
 47
0.0208333333333333
 47
0.0
 47
0.0
 47
0.0
 47
0.0
 47
1.0
 47
0.0
 47
0.0
 47
0.0
 47
0.0
 47
1.0
171
     0
 49
0.0208333333333333
 49
0.0
 49
0.0
 49
0.0
 49
0.0
 49
0.0208333333333333
 49
0.0
 49
0.0
 49
0.0
 49
0.0
 49
1.0
 49
0.0
 49
0.0
 49
0.0
 49
0.0
 49
1.0
175
     0
142
0.0208333333333333
142
0.0
142
0.0
142
0.0
142
0.0
142
0.0208333333333333
142
0.0
142
0.0
142
0.0
142
0.0
142
1.0
142
0.0
142
0.0
142
0.0
142
0.0
142
1.0
179
     0
144
0.0208333333333333
144
0.0
144
0.0
144
0.0
144
0.0
144
0.0208333333333333
144
0.0
144
0.0
144
0.0
144
0.0
144
1.0
144
0.0
144
0.0
144
0.0
144
0.0
144
1.0
147
0.0208333333333333
147
0.0
147
0.0
147
0.0
147
0.0
147
0.0208333333333333
147
0.0
147
0.0
147
0.0
147
0.0
147
1.0
147
0.0
147
0.0
147
0.0
147
0.0
147
1.0
  0
MATERIAL
  5
21
102
{ACAD_XDICTIONARY
360
22
102
}
102
{ACAD_REACTORS
330
10
102
}
330
10
100
AcDbMaterial
  1
Global
 72
     0
 43
0.0208333333333333
 43
0.0
 43
0.0
 43
0.0
 43
0.0
 43
0.0208333333333333
 43
0.0
 43
0.0
 43
0.0
 43
0.0
 43
1.0
 43
0.0
 43
0.0
 43
0.0
 43
0.0
 43
1.0
 77
     0
 47
0.0208333333333333
 47
0.0
 47
0.0
 47
0.0
 47
0.0
 47
0.0208333333333333
 47
0.0
 47
0.0
 47
0.0
 47
0.0
 47
1.0
 47
0.0
 47
0.0
 47
0.0
 47
0.0
 47
1.0
171
     0
 49
0.0208333333333333
 49
0.0
 49
0.0
 49
0.0
 49
0.0
 49
0.0208333333333333
 49
0.0
 49
0.0
 49
0.0
 49
0.0
 49
1.0
 49
0.0
 49
0.0
 49
0.0
 49
0.0
 49
1.0
175
     0
142
0.0208333333333333
142
0.0
142
0.0
142
0.0
142
0.0
142
0.0208333333333333
142
0.0
142
0.0
142
0.0
142
0.0
142
1.0
142
0.0
142
0.0
142
0.0
142
0.0
142
1.0
179
     0
144
0.0208333333333333
144
0.0
144
0.0
144
0.0
144
0.0
144
0.0208333333333333
144
0.0
144
0.0
144
0.0
144
0.0
144
1.0
144
0.0
144
0.0
144
0.0
144
0.0
144
1.0
147
0.0208333333333333
147
0.0
147
0.0
147
0.0
147
0.0
147
0.0208333333333333
147
0.0
147
0.0
147
0.0
147
0.0
147
1.0
147
0.0
147
0.0
147
0.0
147
0.0
147
1.0
  0
MLEADERSTYLE
  5
67
102
{ACAD_REACTORS
330
66
102
}
330
66
100
AcDbMLeaderStyle
170
     2
171
     1
172
     0
 90
        2
 40
0.0
 41
0.0
173
     1
 91
-1056964608
340
5B
 92
       -2
290
     1
 42
0.09
291
     1
 43
0.36
  3
Standard
 44
0.18
300

342
55
174
     1
178
     6
175
     1
176
     0
 93
-1056964608
 45
0.18
292
     0
297
     0
 46
0.18
 94
-1056964608
 47
1.0
 49
1.0
140
1.0
293
     1
141
0.0
294
     1
177
     0
142
1.0
295
     0
296
     0
143
0.125
1001
ACAD_MLEADERVER
1070
     2
  0
MLINESTYLE
  5
60
102
{ACAD_REACTORS
330
5F
102
}
330
5F
100
AcDbMlineStyle
  2
STANDARD
 70
     0
  3

 62
   256
 51
90.0
 52
90.0
 71
     2
 49
0.5
 62
   256
  6
BYLAYER
 49
-0.5
 62
   256
  6
BYLAYER
  0
ACDBPLACEHOLDER
  5
F
102
{ACAD_REACTORS
330
E
102
}
330
E
  0
SCALE
  5
43
102
{ACAD_REACTORS
330
42
102
}
330
42
100
AcDbScale
 70
     0
300
1:1
140
1.0
141
1.0
290
     1
  0
SCALE
  5
44
102
{ACAD_REACTORS
330
42
102
}
330
42
100
AcDbScale
 70
     0
300
1/128" = 1'-0"
140
0.0078125
141
12.0
290
     0
  0
SCALE
  5
45
102
{ACAD_REACTORS
330
42
102
}
330
42
100
AcDbScale
 70
     0
300
1/64" = 1'-0"
140
0.015625
141
12.0
290
     0
  0
SCALE
  5
46
102
{ACAD_REACTORS
330
42
102
}
330
42
100
AcDbScale
 70
     0
300
1/32" = 1'-0"
140
0.03125
141
12.0
290
     0
  0
SCALE
  5
47
102
{ACAD_REACTORS
330
42
102
}
330
42
100
AcDbScale
 70
     0
300
1/16" = 1'-0"
140
0.0625
141
12.0
290
     0
  0
SCALE
  5
48
102
{ACAD_REACTORS
330
42
102
}
330
42
100
AcDbScale
 70
     0
300
3/32" = 1'-0"
140
0.09375
141
12.0
290
     0
  0
SCALE
  5
49
102
{ACAD_REACTORS
330
42
102
}
330
42
100
AcDbScale
 70
     0
300
1/8" = 1'-0"
140
0.125
141
12.0
290
     0
  0
SCALE
  5
4A
102
{ACAD_REACTORS
330
42
102
}
330
42
100
AcDbScale
 70
     0
300
3/16" = 1'-0"
140
0.1875
141
12.0
290
     0
  0
SCALE
  5
4B
102
{ACAD_REACTORS
330
42
102
}
330
42
100
AcDbScale
 70
     0
300
1/4" = 1'-0"
140
0.25
141
12.0
290
     0
  0
SCALE
  5
4C
102
{ACAD_REACTORS
330
42
102
}
330
42
100
AcDbScale
 70
     0
300
3/8" = 1'-0"
140
0.375
141
12.0
290
     0
  0
SCALE
  5
4D
102
{ACAD_REACTORS
330
42
102
}
330
42
100
AcDbScale
 70
     0
300
1/2" = 1'-0"
140
0.5
141
12.0
290
     0
  0
SCALE
  5
4E
102
{ACAD_REACTORS
330
42
102
}
330
42
100
AcDbScale
 70
     0
300
3/4" = 1'-0"
140
0.75
141
12.0
290
     0
  0
SCALE
  5
4F
102
{ACAD_REACTORS
330
42
102
}
330
42
100
AcDbScale
 70
     0
300
1" = 1'-0"
140
1.0
141
12.0
290
     0
  0
SCALE
  5
50
102
{ACAD_REACTORS
330
42
102
}
330
42
100
AcDbScale
 70
     0
300
1-1/2" = 1'-0"
140
1.5
141
12.0
290
     0
  0
SCALE
  5
51
102
{ACAD_REACTORS
330
42
102
}
330
42
100
AcDbScale
 70
     0
300
3" = 1'-0"
140
3.0
141
12.0
290
     0
  0
SCALE
  5
52
102
{ACAD_REACTORS
330
42
102
}
330
42
100
AcDbScale
 70
     0
300
6" = 1'-0"
140
6.0
141
12.0
290
     0
  0
SCALE
  5
53
102
{ACAD_REACTORS
330
42
102
}
330
42
100
AcDbScale
 70
     0
300
1'-0" = 1'-0"
140
12.0
141
12.0
290
     0
  0
TABLESTYLE
  5
65
102
{ACAD_XDICTIONARY
360
3C3
102
}
102
{ACAD_REACTORS
330
64
102
}
330
64
100
AcDbTableStyle
  3
Standard
 70
     0
 71
     0
 40
0.06
 41
0.06
280
     0
281
     0
  7
Standard
140
0.18
170
     2
 62
     0
 63
     7
283
     0
274
    -2
284
     1
 64
     0
275
    -2
285
     1
 65
     0
276
    -2
286
     1
 66
     0
277
    -2
287
     1
 67
     0
278
    -2
288
     1
 68
     0
279
    -2
289
     1
 69
     0
  7
Standard
140
0.25
170
     5
 62
     0
 63
     7
283
     0
274
    -2
284
     1
 64
     0
275
    -2
285
     1
 65
     0
276
    -2
286
     1
 66
     0
277
    -2
287
     1
 67
     0
278
    -2
288
     1
 68
     0
279
    -2
289
     1
 69
     0
  7
Standard
140
0.18
170
     5
 62
     0
 63
     7
283
     0
274
    -2
284
     1
 64
     0
275
    -2
285
     1
 65
     0
276
    -2
286
     1
 66
     0
277
    -2
287
     1
 67
     0
278
    -2
288
     1
 68
     0
279
    -2
289
     1
 69
     0
  0
VISUALSTYLE
  5
2F
102
{ACAD_XDICTIONARY
360
9F0
102
}
102
{ACAD_REACTORS
330
29
102
}
330
29
100
AcDbVisualStyle
  2

 70
     4
 71
     0
 72
     2
 73
     0
 90
        0
 40
-0.6
 41
-30.0
 62
     5
 63
     7
 74
     1
 91
        4
 64
     7
 65
   257
 75
     1
175
     1
 42
1.0
 92
        0
 66
   257
 43
1.0
 76
     1
 77
     6
 78
     2
 67
     7
 79
     5
170
     0
171
     0
290
     0
174
     0
 93
        1
 44
0.0
173
     0
291
     0
 45
0.0
1001
ACAD
1000
AcDbSavedByObjectVersion
1070
     0
  0
VISUALSTYLE
  5
2E
102
{ACAD_XDICTIONARY
360
9EE
102
}
102
{ACAD_REACTORS
330
29
102
}
330
29
100
AcDbVisualStyle
  2

 70
     7
 71
     1
 72
     0
 73
     1
 90
        0
 40
-0.6
 41
-30.0
 62
     5
 63
     7
 74
     0
 91
        4
 64
     7
 65
   257
 75
     1
175
     1
 42
1.0
 92
        8
 66
     7
 43
1.0
 76
     1
 77
     6
 78
     2
 67
     7
 79
     5
170
     0
171
     0
290
     0
174
     0
 93
        1
 44
0.0
173
     0
291
     1
 45
0.0
1001
ACAD
1000
AcDbSavedByObjectVersion
1070
     0
  0
VISUALSTYLE
  5
35
102
{ACAD_XDICTIONARY
360
9FC
102
}
102
{ACAD_REACTORS
330
29
102
}
330
29
100
AcDbVisualStyle
  2

 70
    12
 71
     2
 72
     2
 73
     0
 90
        0
 40
-0.6
 41
-30.0
 62
     5
 63
     7
 74
     1
 91
        4
 64
     7
 65
   257
 75
     1
175
     1
 42
1.0
 92
        8
 66
     7
 43
1.0
 76
     1
 77
     6
 78
     2
 67
     7
 79
     5
170
     0
171
     0
290
     0
174
     0
 93
        1
 44
50.0
173
     0
291
     1
 45
0.0
1001
ACAD
1000
AcDbSavedByObjectVersion
1070
     0
  0
VISUALSTYLE
  5
39
102
{ACAD_XDICTIONARY
360
A04
102
}
102
{ACAD_REACTORS
330
29
102
}
330
29
100
AcDbVisualStyle
  2

 70
    16
 71
     2
 72
     2
 73
     3
 90
        0
 40
-0.6
 41
-30.0
 62
     5
 63
     8
 74
     1
 91
        4
 64
     7
 65
   257
 75
     1
175
     1
 42
1.0
 92
        8
 66
     8
 43
1.0
 76
     1
 77
     6
 78
     2
 67
     7
 79
     5
170
     0
171
     0
290
     0
174
     0
 93
        1
 44
0.0
173
     0
291
     1
 45
0.0
1001
ACAD
1000
AcDbSavedByObjectVersion
1070
     0
  0
VISUALSTYLE
  5
32
102
{ACAD_XDICTIONARY
360
9F6
102
}
102
{ACAD_REACTORS
330
29
102
}
330
29
100
AcDbVisualStyle
  2

 70
     9
 71
     3
 72
     2
 73
     0
 90
        0
 40
-0.6
 41
-30.0
 62
     5
 63
     7
 74
     2
 91
        2
 64
     7
 65
   257
 75
     1
175
     1
 42
179.0
 92
        8
 66
     7
 43
1.0
 76
     1
 77
     6
 78
     2
 67
     7
 79
     3
170
     0
171
     0
290
     0
174
     0
 93
        1
 44
0.0
173
     0
291
     0
 45
0.0
1001
ACAD
1000
AcDbSavedByObjectVersion
1070
     0
  0
VISUALSTYLE
  5
34
102
{ACAD_XDICTIONARY
360
9FA
102
}
102
{ACAD_REACTORS
330
29
102
}
330
29
100
AcDbVisualStyle
  2

 70
    11
 71
     2
 72
     2
 73
     0
 90
        0
 40
-0.6
 41
-30.0
 62
     5
 63
     7
 74
     1
 91
        4
 64
     7
 65
   257
 75
     1
175
     1
 42
1.0
 92
        8
 66
     7
 43
1.0
 76
     1
 77
     6
 78
     2
 67
     7
 79
     5
170
     0
171
     0
290
     0
174
     0
 93
        1
 44
-50.0
173
     0
291
     1
 45
0.0
1001
ACAD
1000
AcDbSavedByObjectVersion
1070
     0
  0
VISUALSTYLE
  5
41
102
{ACAD_XDICTIONARY
360
A14
102
}
102
{ACAD_REACTORS
330
29
102
}
330
29
100
AcDbVisualStyle
  2

 70
    22
 71
     2
 72
     2
 73
     0
 90
        0
 40
-0.6
 41
-30.0
 62
     5
 63
     7
 74
     1
 91
        4
 64
     7
 65
   257
 75
     1
175
     1
 42
1.0
 92
        8
 66
     7
 43
1.0
 76
     1
 77
     6
 78
     2
 67
     7
 79
     5
170
     0
171
     0
290
     0
174
     0
 93
        1
 44
0.0
173
     0
291
     1
 45
0.0
1001
ACAD
1000
AcDbSavedByObjectVersion
1070
     0
  0
VISUALSTYLE
  5
38
102
{ACAD_XDICTIONARY
360
A02
102
}
102
{ACAD_REACTORS
330
29
102
}
330
29
100
AcDbVisualStyle
  2

 70
    15
 71
     2
 72
     2
 73
     0
 90
        0
 40
-0.6
 41
-30.0
 62
     5
 63
     7
 74
     1
 91
        4
 64
     7
 65
   257
 75
     1
175
     1
 42
1.0
 92
        8
 66
     7
 43
1.0
 76
     1
 77
     6
 78
     2
 67
     7
 79
     5
170
     0
171
     0
290
     0
174
     0
 93
        1
 44
0.0
173
     0
291
     1
 45
0.0
1001
ACAD
1000
AcDbSavedByObjectVersion
1070
     0
  0
VISUALSTYLE
  5
2A
102
{ACAD_XDICTIONARY
360
9E6
102
}
102
{ACAD_REACTORS
330
29
102
}
330
29
100
AcDbVisualStyle
  2

 70
     0
 71
     2
 72
     1
 73
     1
 90
        2
 40
-0.6
 41
30.0
 62
     5
 63
     7
 74
     0
 91
        0
 64
     7
 65
   257
 75
     1
175
     1
 42
1.0
 92
        8
 66
     7
 43
1.0
 76
     1
 77
     6
 78
     2
 67
     7
 79
     5
170
     0
171
     0
290
     0
174
     0
 93
       13
 44
0.0
173
     0
291
     1
 45
0.0
1001
ACAD
1000
AcDbSavedByObjectVersion
1070
     0
  0
VISUALSTYLE
  5
2B
102
{ACAD_XDICTIONARY
360
9E8
102
}
102
{ACAD_REACTORS
330
29
102
}
330
29
100
AcDbVisualStyle
  2

 70
     1
 71
     2
 72
     1
 73
     1
 90
        2
 40
-0.6
 41
30.0
 62
     5
 63
     7
 74
     1
 91
        0
 64
     7
 65
   257
 75
     1
175
     1
 42
1.0
 92
        0
 66
   257
 43
1.0
 76
     1
 77
     6
 78
     2
 67
     7
 79
     5
170
     0
171
     0
290
     0
174
     0
 93
       13
 44
0.0
173
     0
291
     1
 45
0.0
1001
ACAD
1000
AcDbSavedByObjectVersion
1070
     0
  0
VISUALSTYLE
  5
2C
102
{ACAD_XDICTIONARY
360
9EA
102
}
102
{ACAD_REACTORS
330
29
102
}
330
29
100
AcDbVisualStyle
  2

 70
     2
 71
     2
 72
     2
 73
     1
 90
        2
 40
-0.6
 41
30.0
 62
     5
 63
     7
 74
     0
 91
        0
 64
     7
 65
   257
 75
     1
175
     1
 42
1.0
 92
        0
 66
     7
 43
1.0
 76
     1
 77
     6
 78
     2
 67
     7
 79
     5
170
     0
171
     0
290
     0
174
     0
 93
       13
 44
0.0
173
     0
291
     1
 45
0.0
1001
ACAD
1000
AcDbSavedByObjectVersion
1070
     0
  0
VISUALSTYLE
  5
2D
102
{ACAD_XDICTIONARY
360
9EC
102
}
102
{ACAD_REACTORS
330
29
102
}
330
29
100
AcDbVisualStyle
  2

 70
     3
 71
     2
 72
     2
 73
     1
 90
        2
 40
-0.6
 41
30.0
 62
     5
 63
     7
 74
     1
 91
        0
 64
     7
 65
   257
 75
     1
175
     1
 42
1.0
 92
        0
 66
   257
 43
1.0
 76
     1
 77
     6
 78
     2
 67
     7
 79
     5
170
     0
171
     0
290
     0
174
     0
 93
       13
 44
0.0
173
     0
291
     1
 45
0.0
1001
ACAD
1000
AcDbSavedByObjectVersion
1070
     0
  0
VISUALSTYLE
  5
31
102
{ACAD_XDICTIONARY
360
9F4
102
}
102
{ACAD_REACTORS
330
29
102
}
330
29
100
AcDbVisualStyle
  2

 70
     6
 71
     1
 72
     2
 73
     2
 90
        0
 40
-0.6
 41
-30.0
 62
     5
 63
     7
 74
     2
 91
        2
 64
     7
 65
   257
 75
     2
175
     1
 42
40.0
 92
        0
 66
   257
 43
1.0
 76
     1
 77
     6
 78
     2
 67
     7
 79
     3
170
     0
171
     0
290
     0
174
     0
 93
        1
 44
0.0
173
     0
291
     0
 45
0.0
1001
ACAD
1000
AcDbSavedByObjectVersion
1070
     0
  0
VISUALSTYLE
  5
3F
102
{ACAD_XDICTIONARY
360
A10
102
}
102
{ACAD_REACTORS
330
29
102
}
330
29
100
AcDbVisualStyle
  2

 70
    20
 71
     2
 72
     2
 73
     0
 90
        0
 40
-0.6
 41
-30.0
 62
     5
 63
     7
 74
     1
 91
        4
 64
     7
 65
   257
 75
     1
175
     1
 42
1.0
 92
       10
 66
     7
 43
1.0
 76
     1
 77
     6
 78
     2
 67
     7
 79
     5
170
     0
171
     0
290
     0
174
     0
 93
        1
 44
0.0
173
     0
291
     1
 45
0.0
1001
ACAD
1000
AcDbSavedByObjectVersion
1070
     0
  0
VISUALSTYLE
  5
37
102
{ACAD_XDICTIONARY
360
A00
102
}
102
{ACAD_REACTORS
330
29
102
}
330
29
100
AcDbVisualStyle
  2

 70
    14
 71
     2
 72
     2
 73
     0
 90
        0
 40
-0.6
 41
-30.0
 62
     5
 63
     7
 74
     1
 91
        4
 64
     7
 65
   257
 75
     7
175
     7
 42
1.0
 92
        8
 66
     7
 43
1.0
 76
     1
 77
     6
 78
     2
 67
     7
 79
     5
170
     0
171
     0
290
     0
174
     0
 93
        1
 44
0.0
173
     0
291
     1
 45
0.0
1001
ACAD
1000
AcDbSavedByObjectVersion
1070
     0
  0
VISUALSTYLE
  5
40
102
{ACAD_XDICTIONARY
360
A12
102
}
102
{ACAD_REACTORS
330
29
102
}
330
29
100
AcDbVisualStyle
  2

 70
    21
 71
     2
 72
     2
 73
     0
 90
        0
 40
-0.6
 41
-30.0
 62
     5
 63
     7
 74
     1
 91
        4
 64
     7
 65
   257
 75
     1
175
     1
 42
1.0
 92
        9
 66
     7
 43
1.0
 76
     1
 77
     6
 78
     2
 67
     7
 79
     5
170
     0
171
     0
290
     0
174
     0
 93
        1
 44
0.0
173
     0
291
     1
 45
0.0
1001
ACAD
1000
AcDbSavedByObjectVersion
1070
     0
  0
VISUALSTYLE
  5
33
102
{ACAD_XDICTIONARY
360
9F8
102
}
102
{ACAD_REACTORS
330
29
102
}
330
29
100
AcDbVisualStyle
  2

 70
     8
 71
     2
 72
     2
 73
     0
 90
        2
 40
-0.6
 41
30.0
 62
     5
 63
     7
 74
     0
 91
        0
 64
     7
 65
   257
 75
     1
175
     1
 42
1.0
 92
        8
 66
   257
 43
1.0
 76
     1
 77
     6
 78
     2
 67
     7
 79
     3
170
     0
171
     0
290
     0
174
     0
 93
       13
 44
0.0
173
     0
291
     0
 45
0.0
1001
ACAD
1000
AcDbSavedByObjectVersion
1070
     0
  0
VISUALSTYLE
  5
3E
102
{ACAD_XDICTIONARY
360
A0E
102
}
102
{ACAD_REACTORS
330
29
102
}
330
29
100
AcDbVisualStyle
  2

 70
    27
 71
     2
 72
     2
 73
     1
 90
        2
 40
-0.6
 41
30.0
 62
     5
 63
     7
 74
     0
 91
        4
 64
     7
 65
   257
 75
     1
175
     1
 42
1.0
 92
        8
 66
   257
 43
1.0
 76
     1
 77
     6
 78
     2
 67
     8
 79
     3
170
     0
171
     0
290
     0
174
     0
 93
        5
 44
0.0
173
     0
291
     0
 45
0.0
1001
ACAD
1000
AcDbSavedByObjectVersion
1070
     0
  0
VISUALSTYLE
  5
3D
102
{ACAD_XDICTIONARY
360
A0C
102
}
102
{ACAD_REACTORS
330
29
102
}
330
29
100
AcDbVisualStyle
  2

 70
    26
 71
     2
 72
     2
 73
     1
 90
        2
 40
-0.6
 41
30.0
 62
     5
 63
     7
 74
     1
 91
       10
 64
     7
 65
   257
 75
     2
175
     1
 42
1.0
 92
        8
 66
   257
 43
1.0
 76
     1
 77
     6
 78
     2
 67
     7
 79
     3
170
     0
171
     0
290
     0
174
     0
 93
        5
 44
0.0
173
     0
291
     0
 45
0.0
1001
ACAD
1000
AcDbSavedByObjectVersion
1070
     0
  0
VISUALSTYLE
  5
3A
102
{ACAD_XDICTIONARY
360
A06
102
}
102
{ACAD_REACTORS
330
29
102
}
330
29
100
AcDbVisualStyle
  2

 70
    23
 71
     2
 72
     2
 73
     3
 90
        0
 40
-0.6
 41
-30.0
 62
     5
 63
     7
 74
     2
 91
        2
 64
     7
 65
     7
 75
     1
175
     1
 42
40.0
 92
        8
 66
     7
 43
1.0
 76
     1
 77
     6
 78
     2
 67
     7
 79
     3
170
     0
171
     0
290
     0
174
     0
 93
        1
 44
0.0
173
     0
291
     0
 45
0.0
1001
ACAD
1000
AcDbSavedByObjectVersion
1070
     0
  0
VISUALSTYLE
  5
3B
102
{ACAD_XDICTIONARY
360
A08
102
}
102
{ACAD_REACTORS
330
29
102
}
330
29
100
AcDbVisualStyle
  2

 70
    24
 71
     1
 72
     2
 73
     2
 90
        0
 40
-0.6
 41
-30.0
 62
     5
 63
     7
 74
     2
 91
        2
 64
     7
 65
     7
 75
     1
175
     1
 42
40.0
 92
       11
 66
     7
 43
1.0
 76
     1
 77
     6
 78
     2
 67
     7
 79
     6
170
     0
171
     0
290
     0
174
     0
 93
        1
 44
0.0
173
     0
291
     0
 45
0.0
1001
ACAD
1000
AcDbSavedByObjectVersion
1070
     0
  0
VISUALSTYLE
  5
36
102
{ACAD_XDICTIONARY
360
9FE
102
}
102
{ACAD_REACTORS
330
29
102
}
330
29
100
AcDbVisualStyle
  2

 70
    13
 71
     2
 72
     2
 73
     0
 90
        0
 40
-0.6
 41
-30.0
 62
     5
 63
     7
 74
     1
 91
        4
 64
     7
 65
   257
 75
     1
175
     1
 42
1.0
 92
       12
 66
     7
 43
1.0
 76
     1
 77
     6
 78
     2
 67
     7
 79
     5
170
     0
171
     0
290
     0
174
     0
 93
        1
 44
0.0
173
     0
291
     1
 45
0.0
1001
ACAD
1000
AcDbSavedByObjectVersion
1070
     0
  0
VISUALSTYLE
  5
30
102
{ACAD_XDICTIONARY
360
9F2
102
}
102
{ACAD_REACTORS
330
29
102
}
330
29
100
AcDbVisualStyle
  2

 70
     5
 71
     0
 72
     2
 73
     0
 90
        0
 40
-0.6
 41
-30.0
 62
     5
 63
     7
 74
     1
 91
        4
 64
     7
 65
   257
 75
     1
175
     1
 42
1.0
 92
        0
 66
   257
 43
1.0
 76
     1
 77
     6
 78
     2
 67
     7
 79
     3
170
     0
171
     0
290
     0
174
     0
 93
        1
 44
0.0
173
     0
291
     0
 45
0.0
1001
ACAD
1000
AcDbSavedByObjectVersion
1070
     0
  0
VISUALSTYLE
  5
3C
102
{ACAD_XDICTIONARY
360
A0A
102
}
102
{ACAD_REACTORS
330
29
102
}
330
29
100
AcDbVisualStyle
  2

 70
    25
 71
     2
 72
     2
 73
     1
 90
        1
 40
0.5
 41
-30.0
 62
     5
 63
     7
 74
     1
 91
        0
 64
     7
 65
   257
 75
     1
175
     1
 42
1.0
 92
        8
 66
     7
 43
1.0
 76
     1
 77
     6
 78
     2
 67
     7
 79
     3
170
     0
171
     0
290
     0
174
     0
 93
       13
 44
0.0
173
     0
291
     0
 45
0.0
1001
ACAD
1000
AcDbSavedByObjectVersion
1070
     0
  0
DICTIONARYVAR
  5
446
102
{ACAD_REACTORS
330
442
102
}
330
442
100
DictionaryVariables
280
     0
  1
1:1
  0
DICTIONARYVAR
  5
444
102
{ACAD_REACTORS
330
442
102
}
330
442
100
DictionaryVariables
280
     0
  1
STANDARD
  0
DICTIONARYVAR
  5
443
102
{ACAD_REACTORS
330
442
102
}
330
442
100
DictionaryVariables
280
     0
  1
STANDARD
  0
DICTIONARYVAR
  5
44D
102
{ACAD_REACTORS
330
442
102
}
330
442
100
DictionaryVariables
280
     0
  1
1
  0
DICTIONARYVAR
  5
44C
102
{ACAD_REACTORS
330
442
102
}
330
442
100
DictionaryVariables
280
     0
  1
1
  0
DICTIONARYVAR
  5
44B
102
{ACAD_REACTORS
330
442
102
}
330
442
100
DictionaryVariables
280
     0
  1
0
  0
DICTIONARYVAR
  5
448
102
{ACAD_REACTORS
330
442
102
}
330
442
100
DictionaryVariables
280
     0
  1
0
  0
DICTIONARYVAR
  5
449
102
{ACAD_REACTORS
330
442
102
}
330
442
100
DictionaryVariables
280
     0
  1
0
  0
DICTIONARYVAR
  5
447
102
{ACAD_REACTORS
330
442
102
}
330
442
100
DictionaryVariables
280
     0
  1
2
  0
DICTIONARYVAR
  5
445
102
{ACAD_REACTORS
330
442
102
}
330
442
100
DictionaryVariables
280
     0
  1
1
  0
DICTIONARYVAR
  5
44A
102
{ACAD_REACTORS
330
442
102
}
330
442
100
DictionaryVariables
280
     0
  1
127
  0
DICTIONARYVAR
  5
9E2
102
{ACAD_REACTORS
330
442
102
}
330
442
100
DictionaryVariables
280
     0
  1
2
  0
DICTIONARY
  5
A17
330
6B
100
AcDbDictionary
280
     1
281
     1
  3
ACAD_XREC_ROUNDTRIP
360
A18
  0
DICTIONARY
  5
A1B
330
73
100
AcDbDictionary
280
     1
281
     1
  3
ACAD_XREC_ROUNDTRIP
360
A1C
  0
DICTIONARY
  5
A19
330
6F
100
AcDbDictionary
280
     1
281
     1
  3
ACAD_XREC_ROUNDTRIP
360
A1A
  0
DICTIONARY
  5
1A
330
19
100
AcDbDictionary
280
     1
281
     1
  3
ACAD_XREC_ROUNDTRIP
360
505
  3
BUMPTILE
360
1C
  3
DIFFUSETILE
360
1B
  3
OPACITYTILE
360
1F
  3
REFLECTIONTILE
360
1E
  3
REFRACTIONTILE
360
20
  3
SPECULARTILE
360
1D
  0
DICTIONARY
  5
12
330
11
100
AcDbDictionary
280
     1
281
     1
  3
ACAD_XREC_ROUNDTRIP
360
504
  3
BUMPTILE
360
14
  3
DIFFUSETILE
360
13
  3
OPACITYTILE
360
17
  3
REFLECTIONTILE
360
16
  3
REFRACTIONTILE
360
18
  3
SPECULARTILE
360
15
  0
DICTIONARY
  5
22
330
21
100
AcDbDictionary
280
     1
281
     1
  3
ACAD_XREC_ROUNDTRIP
360
506
  3
BUMPTILE
360
24
  3
DIFFUSETILE
360
23
  3
OPACITYTILE
360
27
  3
REFLECTIONTILE
360
26
  3
REFRACTIONTILE
360
28
  3
SPECULARTILE
360
25
  0
DICTIONARY
  5
3C3
330
65
100
AcDbDictionary
280
     1
281
     1
  3
ACAD_ROUNDTRIP_2008_TABLESTYLE_CELLSTYLEMAP
360
9E3
  3
ACAD_XREC_ROUNDTRIP
360
A16
  0
DICTIONARY
  5
9F0
330
2F
100
AcDbDictionary
280
     1
281
     1
  3
ACAD_XREC_ROUNDTRIP
360
9F1
  0
DICTIONARY
  5
9EE
330
2E
100
AcDbDictionary
280
     1
281
     1
  3
ACAD_XREC_ROUNDTRIP
360
9EF
  0
DICTIONARY
  5
9FC
330
35
100
AcDbDictionary
280
     1
281
     1
  3
ACAD_XREC_ROUNDTRIP
360
9FD
  0
DICTIONARY
  5
A04
330
39
100
AcDbDictionary
280
     1
281
     1
  3
ACAD_XREC_ROUNDTRIP
360
A05
  0
DICTIONARY
  5
9F6
330
32
100
AcDbDictionary
280
     1
281
     1
  3
ACAD_XREC_ROUNDTRIP
360
9F7
  0
DICTIONARY
  5
9FA
330
34
100
AcDbDictionary
280
     1
281
     1
  3
ACAD_XREC_ROUNDTRIP
360
9FB
  0
DICTIONARY
  5
A14
330
41
100
AcDbDictionary
280
     1
281
     1
  3
ACAD_XREC_ROUNDTRIP
360
A15
  0
DICTIONARY
  5
A02
330
38
100
AcDbDictionary
280
     1
281
     1
  3
ACAD_XREC_ROUNDTRIP
360
A03
  0
DICTIONARY
  5
9E6
330
2A
100
AcDbDictionary
280
     1
281
     1
  3
ACAD_XREC_ROUNDTRIP
360
9E7
  0
DICTIONARY
  5
9E8
330
2B
100
AcDbDictionary
280
     1
281
     1
  3
ACAD_XREC_ROUNDTRIP
360
9E9
  0
DICTIONARY
  5
9EA
330
2C
100
AcDbDictionary
280
     1
281
     1
  3
ACAD_XREC_ROUNDTRIP
360
9EB
  0
DICTIONARY
  5
9EC
330
2D
100
AcDbDictionary
280
     1
281
     1
  3
ACAD_XREC_ROUNDTRIP
360
9ED
  0
DICTIONARY
  5
9F4
330
31
100
AcDbDictionary
280
     1
281
     1
  3
ACAD_XREC_ROUNDTRIP
360
9F5
  0
DICTIONARY
  5
A10
330
3F
100
AcDbDictionary
280
     1
281
     1
  3
ACAD_XREC_ROUNDTRIP
360
A11
  0
DICTIONARY
  5
A00
330
37
100
AcDbDictionary
280
     1
281
     1
  3
ACAD_XREC_ROUNDTRIP
360
A01
  0
DICTIONARY
  5
A12
330
40
100
AcDbDictionary
280
     1
281
     1
  3
ACAD_XREC_ROUNDTRIP
360
A13
  0
DICTIONARY
  5
9F8
330
33
100
AcDbDictionary
280
     1
281
     1
  3
ACAD_XREC_ROUNDTRIP
360
9F9
  0
DICTIONARY
  5
A0E
330
3E
100
AcDbDictionary
280
     1
281
     1
  3
ACAD_XREC_ROUNDTRIP
360
A0F
  0
DICTIONARY
  5
A0C
330
3D
100
AcDbDictionary
280
     1
281
     1
  3
ACAD_XREC_ROUNDTRIP
360
A0D
  0
DICTIONARY
  5
A06
330
3A
100
AcDbDictionary
280
     1
281
     1
  3
ACAD_XREC_ROUNDTRIP
360
A07
  0
DICTIONARY
  5
A08
330
3B
100
AcDbDictionary
280
     1
281
     1
  3
ACAD_XREC_ROUNDTRIP
360
A09
  0
DICTIONARY
  5
9FE
330
36
100
AcDbDictionary
280
     1
281
     1
  3
ACAD_XREC_ROUNDTRIP
360
9FF
  0
DICTIONARY
  5
9F2
330
30
100
AcDbDictionary
280
     1
281
     1
  3
ACAD_XREC_ROUNDTRIP
360
9F3
  0
DICTIONARY
  5
A0A
330
3C
100
AcDbDictionary
280
     1
281
     1
  3
ACAD_XREC_ROUNDTRIP
360
A0B
  0
XRECORD
  5
A18
102
{ACAD_REACTORS
330
A17
102
}
330
A17
100
AcDbXrecord
280
     1
102
SHADEPLOT
 70
     0
102
SHADEPLOTRESLEVEL
 70
     2
102
SHADEPLOTCUSTOMDPI
 70
   300
  0
XRECORD
  5
A1C
102
{ACAD_REACTORS
330
A1B
102
}
330
A1B
100
AcDbXrecord
280
     1
102
SHADEPLOT
 70
     0
102
SHADEPLOTRESLEVEL
 70
     2
102
SHADEPLOTCUSTOMDPI
 70
   300
  0
XRECORD
  5
A1A
102
{ACAD_REACTORS
330
A19
102
}
330
A19
100
AcDbXrecord
280
     1
102
SHADEPLOT
 70
     0
102
SHADEPLOTRESLEVEL
 70
     2
102
SHADEPLOTCUSTOMDPI
 70
   300
  0
XRECORD
  5
505
102
{ACAD_REACTORS
330
1A
102
}
330
1A
100
AcDbXrecord
280
     1
102
MATERIAL
148
0.0
149
0.0
149
0.0
 93
        0
 94
      127
282
     0
 72
     0
 77
     0
171
     0
175
     0
179
     0
273
     0
  0
XRECORD
  5
1C
102
{ACAD_REACTORS
330
1A
102
}
330
1A
100
AcDbXrecord
280
     1
270
     1
271
     1
  0
XRECORD
  5
1B
102
{ACAD_REACTORS
330
1A
102
}
330
1A
100
AcDbXrecord
280
     1
270
     1
271
     1
  0
XRECORD
  5
1F
102
{ACAD_REACTORS
330
1A
102
}
330
1A
100
AcDbXrecord
280
     1
270
     1
271
     1
  0
XRECORD
  5
1E
102
{ACAD_REACTORS
330
1A
102
}
330
1A
100
AcDbXrecord
280
     1
270
     1
271
     1
  0
XRECORD
  5
20
102
{ACAD_REACTORS
330
1A
102
}
330
1A
100
AcDbXrecord
280
     1
270
     1
271
     1
  0
XRECORD
  5
1D
102
{ACAD_REACTORS
330
1A
102
}
330
1A
100
AcDbXrecord
280
     1
270
     1
271
     1
  0
XRECORD
  5
504
102
{ACAD_REACTORS
330
12
102
}
330
12
100
AcDbXrecord
280
     1
102
MATERIAL
148
0.0
149
0.0
149
0.0
 93
        0
 94
      127
282
     0
 72
     0
 77
     0
171
     0
175
     0
179
     0
273
     0
  0
XRECORD
  5
14
102
{ACAD_REACTORS
330
12
102
}
330
12
100
AcDbXrecord
280
     1
270
     1
271
     1
  0
XRECORD
  5
13
102
{ACAD_REACTORS
330
12
102
}
330
12
100
AcDbXrecord
280
     1
270
     1
271
     1
  0
XRECORD
  5
17
102
{ACAD_REACTORS
330
12
102
}
330
12
100
AcDbXrecord
280
     1
270
     1
271
     1
  0
XRECORD
  5
16
102
{ACAD_REACTORS
330
12
102
}
330
12
100
AcDbXrecord
280
     1
270
     1
271
     1
  0
XRECORD
  5
18
102
{ACAD_REACTORS
330
12
102
}
330
12
100
AcDbXrecord
280
     1
270
     1
271
     1
  0
XRECORD
  5
15
102
{ACAD_REACTORS
330
12
102
}
330
12
100
AcDbXrecord
280
     1
270
     1
271
     1
  0
XRECORD
  5
506
102
{ACAD_REACTORS
330
22
102
}
330
22
100
AcDbXrecord
280
     1
102
MATERIAL
148
0.0
149
0.0
149
0.0
 93
        0
 94
      127
282
     0
 72
     0
 77
     0
171
     0
175
     0
179
     0
273
     0
  0
XRECORD
  5
24
102
{ACAD_REACTORS
330
22
102
}
330
22
100
AcDbXrecord
280
     1
270
     1
271
     1
  0
XRECORD
  5
23
102
{ACAD_REACTORS
330
22
102
}
330
22
100
AcDbXrecord
280
     1
270
     1
271
     1
  0
XRECORD
  5
27
102
{ACAD_REACTORS
330
22
102
}
330
22
100
AcDbXrecord
280
     1
270
     1
271
     1
  0
XRECORD
  5
26
102
{ACAD_REACTORS
330
22
102
}
330
22
100
AcDbXrecord
280
     1
270
     1
271
     1
  0
XRECORD
  5
28
102
{ACAD_REACTORS
330
22
102
}
330
22
100
AcDbXrecord
280
     1
270
     1
271
     1
  0
XRECORD
  5
25
102
{ACAD_REACTORS
330
22
102
}
330
22
100
AcDbXrecord
280
     1
270
     1
271
     1
  0
CELLSTYLEMAP
  5
9E3
102
{ACAD_REACTORS
330
3C3
102
}
330
3C3
100
AcDbCellStyleMap
 90
        3
300
CELLSTYLE
  1
TABLEFORMAT_BEGIN
 90
        5
170
     1
 91
        0
 92
    32768
 62
   257
 93
        1
300
CONTENTFORMAT
  1
CONTENTFORMAT_BEGIN
 90
        0
 91
        0
 92
      512
 93
        0
300

 40
0.0
140
1.0
 94
        5
 62
     0
340
55
144
0.25
309
CONTENTFORMAT_END
171
     1
301
MARGIN
  1
CELLMARGIN_BEGIN
 40
0.06
 40
0.06
 40
0.06
 40
0.06
 40
0.18
 40
0.18
309
CELLMARGIN_END
 94
        6
 95
        1
302
GRIDFORMAT
  1
GRIDFORMAT_BEGIN
 90
        0
 91
        1
 62
     0
 92
       -2
340
0
 93
        0
 40
0.045
309
GRIDFORMAT_END
 95
        2
302
GRIDFORMAT
  1
GRIDFORMAT_BEGIN
 90
        0
 91
        1
 62
     0
 92
       -2
340
0
 93
        0
 40
0.045
309
GRIDFORMAT_END
 95
        4
302
GRIDFORMAT
  1
GRIDFORMAT_BEGIN
 90
        0
 91
        1
 62
     0
 92
       -2
340
0
 93
        0
 40
0.045
309
GRIDFORMAT_END
 95
        8
302
GRIDFORMAT
  1
GRIDFORMAT_BEGIN
 90
        0
 91
        1
 62
     0
 92
       -2
340
0
 93
        0
 40
0.045
309
GRIDFORMAT_END
 95
       16
302
GRIDFORMAT
  1
GRIDFORMAT_BEGIN
 90
        0
 91
        1
 62
     0
 92
       -2
340
0
 93
        0
 40
0.045
309
GRIDFORMAT_END
 95
       32
302
GRIDFORMAT
  1
GRIDFORMAT_BEGIN
 90
        0
 91
        1
 62
     0
 92
       -2
340
0
 93
        0
 40
0.045
309
GRIDFORMAT_END
309
TABLEFORMAT_END
  1
CELLSTYLE_BEGIN
 90
        1
 91
        1
300
_TITLE
309
CELLSTYLE_END
300
CELLSTYLE
  1
TABLEFORMAT_BEGIN
 90
        5
170
     1
 91
        0
 92
        0
 62
   257
 93
        1
300
CONTENTFORMAT
  1
CONTENTFORMAT_BEGIN
 90
        0
 91
        0
 92
      512
 93
        0
300

 40
0.0
140
1.0
 94
        5
 62
     0
340
55
144
0.18
309
CONTENTFORMAT_END
171
     1
301
MARGIN
  1
CELLMARGIN_BEGIN
 40
0.06
 40
0.06
 40
0.06
 40
0.06
 40
0.18
 40
0.18
309
CELLMARGIN_END
 94
        6
 95
        1
302
GRIDFORMAT
  1
GRIDFORMAT_BEGIN
 90
        0
 91
        1
 62
     0
 92
       -2
340
0
 93
        0
 40
0.045
309
GRIDFORMAT_END
 95
        2
302
GRIDFORMAT
  1
GRIDFORMAT_BEGIN
 90
        0
 91
        1
 62
     0
 92
       -2
340
0
 93
        0
 40
0.045
309
GRIDFORMAT_END
 95
        4
302
GRIDFORMAT
  1
GRIDFORMAT_BEGIN
 90
        0
 91
        1
 62
     0
 92
       -2
340
0
 93
        0
 40
0.045
309
GRIDFORMAT_END
 95
        8
302
GRIDFORMAT
  1
GRIDFORMAT_BEGIN
 90
        0
 91
        1
 62
     0
 92
       -2
340
0
 93
        0
 40
0.045
309
GRIDFORMAT_END
 95
       16
302
GRIDFORMAT
  1
GRIDFORMAT_BEGIN
 90
        0
 91
        1
 62
     0
 92
       -2
340
0
 93
        0
 40
0.045
309
GRIDFORMAT_END
 95
       32
302
GRIDFORMAT
  1
GRIDFORMAT_BEGIN
 90
        0
 91
        1
 62
     0
 92
       -2
340
0
 93
        0
 40
0.045
309
GRIDFORMAT_END
309
TABLEFORMAT_END
  1
CELLSTYLE_BEGIN
 90
        2
 91
        1
300
_HEADER
309
CELLSTYLE_END
300
CELLSTYLE
  1
TABLEFORMAT_BEGIN
 90
        5
170
     1
 91
        0
 92
        0
 62
   257
 93
        1
300
CONTENTFORMAT
  1
CONTENTFORMAT_BEGIN
 90
        0
 91
        0
 92
      512
 93
        0
300

 40
0.0
140
1.0
 94
        2
 62
     0
340
55
144
0.18
309
CONTENTFORMAT_END
171
     1
301
MARGIN
  1
CELLMARGIN_BEGIN
 40
0.06
 40
0.06
 40
0.06
 40
0.06
 40
0.18
 40
0.18
309
CELLMARGIN_END
 94
        6
 95
        1
302
GRIDFORMAT
  1
GRIDFORMAT_BEGIN
 90
        0
 91
        1
 62
     0
 92
       -2
340
0
 93
        0
 40
0.045
309
GRIDFORMAT_END
 95
        2
302
GRIDFORMAT
  1
GRIDFORMAT_BEGIN
 90
        0
 91
        1
 62
     0
 92
       -2
340
0
 93
        0
 40
0.045
309
GRIDFORMAT_END
 95
        4
302
GRIDFORMAT
  1
GRIDFORMAT_BEGIN
 90
        0
 91
        1
 62
     0
 92
       -2
340
0
 93
        0
 40
0.045
309
GRIDFORMAT_END
 95
        8
302
GRIDFORMAT
  1
GRIDFORMAT_BEGIN
 90
        0
 91
        1
 62
     0
 92
       -2
340
0
 93
        0
 40
0.045
309
GRIDFORMAT_END
 95
       16
302
GRIDFORMAT
  1
GRIDFORMAT_BEGIN
 90
        0
 91
        1
 62
     0
 92
       -2
340
0
 93
        0
 40
0.045
309
GRIDFORMAT_END
 95
       32
302
GRIDFORMAT
  1
GRIDFORMAT_BEGIN
 90
        0
 91
        1
 62
     0
 92
       -2
340
0
 93
        0
 40
0.045
309
GRIDFORMAT_END
309
TABLEFORMAT_END
  1
CELLSTYLE_BEGIN
 90
        3
 91
        2
300
_DATA
309
CELLSTYLE_END
  0
XRECORD
  5
A16
102
{ACAD_REACTORS
330
3C3
102
}
330
3C3
100
AcDbXrecord
280
     1
102
ACAD_ROUNDTRIP_PRE2007_TABLESTYLE
 90
      512
 91
        0
  1

 92
      512
 93
        0
  2

 94
      512
 95
        0
  3

  0
XRECORD
  5
9F1
102
{ACAD_REACTORS
330
9F0
102
}
330
9F0
100
AcDbXrecord
280
     1
102
RTVSPropertyOp0
 70
     1
102
RTVSPropertyOp1
 70
     1
102
RTVSPropertyOp2
 70
     1
102
RTVSPropertyOp3
 70
     1
102
RTVSPropertyOp4
 70
     1
102
RTVSPropertyOp5
 70
     1
102
RTVSPropertyOp6
 70
     1
102
RTVSPropertyOp7
 70
     1
102
RTVSPropertyOp8
 70
     1
102
RTVSPropertyOp9
 70
     1
102
RTVSPropertyOp10
 70
     1
102
RTVSPropertyOp11
 70
     1
102
RTVSPropertyOp12
 70
     1
102
RTVSPropertyOp13
 70
     1
102
RTVSPropertyOp14
 70
     1
102
RTVSPropertyOp15
 70
     1
102
RTVSPropertyOp16
 70
     1
102
RTVSPropertyOp17
 70
     1
102
RTVSPropertyOp18
 70
     1
102
RTVSPropertyOp19
 70
     1
102
RTVSPropertyOp20
 70
     1
102
RTVSPropertyOp21
 70
     1
102
RTVSPropertyOp22
 70
     1
102
RTVSPropertyOp23
 70
     1
102
RTVSPropertyOp24
 70
     1
102
RTVSPropertyOp25
 70
     1
102
RTVSPropertyOp26
 70
     1
102
RTVSPropertyOp27
 70
     1
102
RTVSPropertyOp28
 70
     1
102
RTVSPropertyOp29
 70
     1
102
RTVSPropertyOp30
 70
     1
102
RTVSPropertyOp31
 70
     1
102
RTVSPropertyOp32
 70
     1
  0
XRECORD
  5
9EF
102
{ACAD_REACTORS
330
9EE
102
}
330
9EE
100
AcDbXrecord
280
     1
102
RTVSPropertyOp0
 70
     1
102
RTVSPropertyOp1
 70
     1
102
RTVSPropertyOp2
 70
     1
102
RTVSPropertyOp3
 70
     1
102
RTVSPropertyOp4
 70
     1
102
RTVSPropertyOp5
 70
     1
102
RTVSPropertyOp6
 70
     1
102
RTVSPropertyOp7
 70
     1
102
RTVSPropertyOp8
 70
     1
102
RTVSPropertyOp9
 70
     1
102
RTVSPropertyOp10
 70
     1
102
RTVSPropertyOp11
 70
     1
102
RTVSPropertyOp12
 70
     1
102
RTVSPropertyOp13
 70
     1
102
RTVSPropertyOp14
 70
     1
102
RTVSPropertyOp15
 70
     1
102
RTVSPropertyOp16
 70
     1
102
RTVSPropertyOp17
 70
     1
102
RTVSPropertyOp18
 70
     1
102
RTVSPropertyOp19
 70
     1
102
RTVSPropertyOp20
 70
     1
102
RTVSPropertyOp21
 70
     1
102
RTVSPropertyOp22
 70
     1
102
RTVSPropertyOp23
 70
     1
102
RTVSPropertyOp24
 70
     1
102
RTVSPropertyOp25
 70
     1
102
RTVSPropertyOp26
 70
     1
102
RTVSPropertyOp27
 70
     1
102
RTVSPropertyOp28
 70
     1
102
RTVSPropertyOp29
 70
     1
102
RTVSPropertyOp30
 70
     1
102
RTVSPropertyOp31
 70
     1
102
RTVSPropertyOp32
 70
     1
  0
XRECORD
  5
9FD
102
{ACAD_REACTORS
330
9FC
102
}
330
9FC
100
AcDbXrecord
280
     1
102
RTVSPropertyOp0
 70
     1
102
RTVSPropertyOp1
 70
     1
102
RTVSPropertyOp2
 70
     1
102
RTVSPropertyOp3
 70
     1
102
RTVSPropertyOp4
 70
     1
102
RTVSPropertyOp5
 70
     1
102
RTVSPropertyOp6
 70
     1
102
RTVSPropertyOp7
 70
     1
102
RTVSPropertyOp8
 70
     1
102
RTVSPropertyOp9
 70
     1
102
RTVSPropertyOp10
 70
     1
102
RTVSPropertyOp11
 70
     1
102
RTVSPropertyOp12
 70
     1
102
RTVSPropertyOp13
 70
     1
102
RTVSPropertyOp14
 70
     1
102
RTVSPropertyOp15
 70
     1
102
RTVSPropertyOp16
 70
     1
102
RTVSPropertyOp17
 70
     1
102
RTVSPropertyOp18
 70
     1
102
RTVSPropertyOp19
 70
     1
102
RTVSPropertyOp20
 70
     1
102
RTVSPropertyOp21
 70
     1
102
RTVSPropertyOp22
 70
     1
102
RTVSPropertyOp23
 70
     1
102
RTVSPropertyOp24
 70
     1
102
RTVSPropertyOp25
 70
     1
102
RTVSPropertyOp26
 70
     1
102
RTVSPropertyOp27
 70
     1
102
RTVSPropertyOp28
 70
     1
102
RTVSPropertyOp29
 70
     1
102
RTVSPropertyOp30
 70
     1
102
RTVSPropertyOp31
 70
     1
102
RTVSPropertyOp32
 70
     1
  0
XRECORD
  5
A05
102
{ACAD_REACTORS
330
A04
102
}
330
A04
100
AcDbXrecord
280
     1
102
RTVSPropertyOp0
 70
     1
102
RTVSPropertyOp1
 70
     1
102
RTVSPropertyOp2
 70
     1
102
RTVSPropertyOp3
 70
     1
102
RTVSPropertyOp4
 70
     1
102
RTVSPropertyOp5
 70
     1
102
RTVSPropertyOp6
 70
     1
102
RTVSPropertyOp7
 70
     1
102
RTVSPropertyOp8
 70
     1
102
RTVSPropertyOp9
 70
     1
102
RTVSPropertyOp10
 70
     1
102
RTVSPropertyOp11
 70
     1
102
RTVSPropertyOp12
 70
     1
102
RTVSPropertyOp13
 70
     1
102
RTVSPropertyOp14
 70
     1
102
RTVSPropertyOp15
 70
     1
102
RTVSPropertyOp16
 70
     1
102
RTVSPropertyOp17
 70
     1
102
RTVSPropertyOp18
 70
     1
102
RTVSPropertyOp19
 70
     1
102
RTVSPropertyOp20
 70
     1
102
RTVSPropertyOp21
 70
     1
102
RTVSPropertyOp22
 70
     1
102
RTVSPropertyOp23
 70
     1
102
RTVSPropertyOp24
 70
     1
102
RTVSPropertyOp25
 70
     1
102
RTVSPropertyOp26
 70
     1
102
RTVSPropertyOp27
 70
     1
102
RTVSPropertyOp28
 70
     1
102
RTVSPropertyOp29
 70
     1
102
RTVSPropertyOp30
 70
     1
102
RTVSPropertyOp31
 70
     1
102
RTVSPropertyOp32
 70
     1
  0
XRECORD
  5
9F7
102
{ACAD_REACTORS
330
9F6
102
}
330
9F6
100
AcDbXrecord
280
     1
102
RTVSPropertyOp0
 70
     1
102
RTVSPropertyOp1
 70
     1
102
RTVSPropertyOp2
 70
     1
102
RTVSPropertyOp3
 70
     1
102
RTVSPropertyOp4
 70
     1
102
RTVSPropertyOp5
 70
     1
102
RTVSPropertyOp6
 70
     1
102
RTVSPropertyOp7
 70
     1
102
RTVSPropertyOp8
 70
     1
102
RTVSPropertyOp9
 70
     1
102
RTVSPropertyOp10
 70
     1
102
RTVSPropertyOp11
 70
     1
102
RTVSPropertyOp12
 70
     1
102
RTVSPropertyOp13
 70
     1
102
RTVSPropertyOp14
 70
     1
102
RTVSPropertyOp15
 70
     1
102
RTVSPropertyOp16
 70
     1
102
RTVSPropertyOp17
 70
     1
102
RTVSPropertyOp18
 70
     1
102
RTVSPropertyOp19
 70
     1
102
RTVSPropertyOp20
 70
     1
102
RTVSPropertyOp21
 70
     1
102
RTVSPropertyOp22
 70
     1
102
RTVSPropertyOp23
 70
     1
102
RTVSPropertyOp24
 70
     1
102
RTVSPropertyOp25
 70
     1
102
RTVSPropertyOp26
 70
     1
102
RTVSPropertyOp27
 70
     1
102
RTVSPropertyOp28
 70
     1
102
RTVSPropertyOp29
 70
     1
102
RTVSPropertyOp30
 70
     1
102
RTVSPropertyOp31
 70
     1
102
RTVSPropertyOp32
 70
     1
  0
XRECORD
  5
9FB
102
{ACAD_REACTORS
330
9FA
102
}
330
9FA
100
AcDbXrecord
280
     1
102
RTVSPropertyOp0
 70
     1
102
RTVSPropertyOp1
 70
     1
102
RTVSPropertyOp2
 70
     1
102
RTVSPropertyOp3
 70
     1
102
RTVSPropertyOp4
 70
     1
102
RTVSPropertyOp5
 70
     1
102
RTVSPropertyOp6
 70
     1
102
RTVSPropertyOp7
 70
     1
102
RTVSPropertyOp8
 70
     1
102
RTVSPropertyOp9
 70
     1
102
RTVSPropertyOp10
 70
     1
102
RTVSPropertyOp11
 70
     1
102
RTVSPropertyOp12
 70
     1
102
RTVSPropertyOp13
 70
     1
102
RTVSPropertyOp14
 70
     1
102
RTVSPropertyOp15
 70
     1
102
RTVSPropertyOp16
 70
     1
102
RTVSPropertyOp17
 70
     1
102
RTVSPropertyOp18
 70
     1
102
RTVSPropertyOp19
 70
     1
102
RTVSPropertyOp20
 70
     1
102
RTVSPropertyOp21
 70
     1
102
RTVSPropertyOp22
 70
     1
102
RTVSPropertyOp23
 70
     1
102
RTVSPropertyOp24
 70
     1
102
RTVSPropertyOp25
 70
     1
102
RTVSPropertyOp26
 70
     1
102
RTVSPropertyOp27
 70
     1
102
RTVSPropertyOp28
 70
     1
102
RTVSPropertyOp29
 70
     1
102
RTVSPropertyOp30
 70
     1
102
RTVSPropertyOp31
 70
     1
102
RTVSPropertyOp32
 70
     1
  0
XRECORD
  5
A15
102
{ACAD_REACTORS
330
A14
102
}
330
A14
100
AcDbXrecord
280
     1
102
RTVSPropertyOp0
 70
     0
102
RTVSPropertyOp1
 70
     0
102
RTVSPropertyOp2
 70
     0
102
RTVSPropertyOp3
 70
     0
102
RTVSPropertyOp4
 70
     0
102
RTVSPropertyOp5
 70
     0
102
RTVSPropertyOp6
 70
     0
102
RTVSPropertyOp7
 70
     0
102
RTVSPropertyOp8
 70
     0
102
RTVSPropertyOp9
 70
     0
102
RTVSPropertyOp10
 70
     0
102
RTVSPropertyOp11
 70
     0
102
RTVSPropertyOp12
 70
     0
102
RTVSPropertyOp13
 70
     0
102
RTVSPropertyOp14
 70
     2
102
RTVSPropertyOp15
 70
     0
102
RTVSPropertyOp16
 70
     0
102
RTVSPropertyOp17
 70
     0
102
RTVSPropertyOp18
 70
     0
102
RTVSPropertyOp19
 70
     0
102
RTVSPropertyOp20
 70
     0
102
RTVSPropertyOp21
 70
     0
102
RTVSPropertyOp22
 70
     0
102
RTVSPropertyOp23
 70
     0
102
RTVSPropertyOp24
 70
     0
102
RTVSPropertyOp25
 70
     0
102
RTVSPropertyOp26
 70
     0
102
RTVSPropertyOp27
 70
     0
102
RTVSPropertyOp28
 70
     0
102
RTVSPropertyOp29
 70
     0
102
RTVSPropertyOp30
 70
     0
102
RTVSPropertyOp31
 70
     0
102
RTVSPropertyOp32
 70
     0
  0
XRECORD
  5
A03
102
{ACAD_REACTORS
330
A02
102
}
330
A02
100
AcDbXrecord
280
     1
102
RTVSPropertyOp0
 70
     1
102
RTVSPropertyOp1
 70
     1
102
RTVSPropertyOp2
 70
     1
102
RTVSPropertyOp3
 70
     1
102
RTVSPropertyOp4
 70
     1
102
RTVSPropertyOp5
 70
     1
102
RTVSPropertyOp6
 70
     1
102
RTVSPropertyOp7
 70
     1
102
RTVSPropertyOp8
 70
     1
102
RTVSPropertyOp9
 70
     1
102
RTVSPropertyOp10
 70
     1
102
RTVSPropertyOp11
 70
     1
102
RTVSPropertyOp12
 70
     1
102
RTVSPropertyOp13
 70
     1
102
RTVSPropertyOp14
 70
     1
102
RTVSPropertyOp15
 70
     1
102
RTVSPropertyOp16
 70
     1
102
RTVSPropertyOp17
 70
     1
102
RTVSPropertyOp18
 70
     1
102
RTVSPropertyOp19
 70
     1
102
RTVSPropertyOp20
 70
     1
102
RTVSPropertyOp21
 70
     1
102
RTVSPropertyOp22
 70
     1
102
RTVSPropertyOp23
 70
     1
102
RTVSPropertyOp24
 70
     1
102
RTVSPropertyOp25
 70
     1
102
RTVSPropertyOp26
 70
     1
102
RTVSPropertyOp27
 70
     1
102
RTVSPropertyOp28
 70
     1
102
RTVSPropertyOp29
 70
     1
102
RTVSPropertyOp30
 70
     1
102
RTVSPropertyOp31
 70
     1
102
RTVSPropertyOp32
 70
     1
  0
XRECORD
  5
9E7
102
{ACAD_REACTORS
330
9E6
102
}
330
9E6
100
AcDbXrecord
280
     1
102
RTVSPropertyOp0
 70
     1
102
RTVSPropertyOp1
 70
     1
102
RTVSPropertyOp2
 70
     1
102
RTVSPropertyOp3
 70
     1
102
RTVSPropertyOp4
 70
     1
102
RTVSPropertyOp5
 70
     1
102
RTVSPropertyOp6
 70
     1
102
RTVSPropertyOp7
 70
     1
102
RTVSPropertyOp8
 70
     1
102
RTVSPropertyOp9
 70
     1
102
RTVSPropertyOp10
 70
     1
102
RTVSPropertyOp11
 70
     1
102
RTVSPropertyOp12
 70
     1
102
RTVSPropertyOp13
 70
     1
102
RTVSPropertyOp14
 70
     1
102
RTVSPropertyOp15
 70
     1
102
RTVSPropertyOp16
 70
     1
102
RTVSPropertyOp17
 70
     1
102
RTVSPropertyOp18
 70
     1
102
RTVSPropertyOp19
 70
     1
102
RTVSPropertyOp20
 70
     1
102
RTVSPropertyOp21
 70
     1
102
RTVSPropertyOp22
 70
     1
102
RTVSPropertyOp23
 70
     1
102
RTVSPropertyOp24
 70
     1
102
RTVSPropertyOp25
 70
     1
102
RTVSPropertyOp26
 70
     1
102
RTVSPropertyOp27
 70
     1
102
RTVSPropertyOp28
 70
     1
102
RTVSPropertyOp29
 70
     1
102
RTVSPropertyOp30
 70
     1
102
RTVSPropertyOp31
 70
     1
102
RTVSPropertyOp32
 70
     1
  0
XRECORD
  5
9E9
102
{ACAD_REACTORS
330
9E8
102
}
330
9E8
100
AcDbXrecord
280
     1
102
RTVSPropertyOp0
 70
     1
102
RTVSPropertyOp1
 70
     1
102
RTVSPropertyOp2
 70
     1
102
RTVSPropertyOp3
 70
     1
102
RTVSPropertyOp4
 70
     1
102
RTVSPropertyOp5
 70
     1
102
RTVSPropertyOp6
 70
     1
102
RTVSPropertyOp7
 70
     1
102
RTVSPropertyOp8
 70
     1
102
RTVSPropertyOp9
 70
     1
102
RTVSPropertyOp10
 70
     1
102
RTVSPropertyOp11
 70
     1
102
RTVSPropertyOp12
 70
     1
102
RTVSPropertyOp13
 70
     1
102
RTVSPropertyOp14
 70
     1
102
RTVSPropertyOp15
 70
     1
102
RTVSPropertyOp16
 70
     1
102
RTVSPropertyOp17
 70
     1
102
RTVSPropertyOp18
 70
     1
102
RTVSPropertyOp19
 70
     1
102
RTVSPropertyOp20
 70
     1
102
RTVSPropertyOp21
 70
     1
102
RTVSPropertyOp22
 70
     1
102
RTVSPropertyOp23
 70
     1
102
RTVSPropertyOp24
 70
     1
102
RTVSPropertyOp25
 70
     1
102
RTVSPropertyOp26
 70
     1
102
RTVSPropertyOp27
 70
     1
102
RTVSPropertyOp28
 70
     1
102
RTVSPropertyOp29
 70
     1
102
RTVSPropertyOp30
 70
     1
102
RTVSPropertyOp31
 70
     1
102
RTVSPropertyOp32
 70
     1
  0
XRECORD
  5
9EB
102
{ACAD_REACTORS
330
9EA
102
}
330
9EA
100
AcDbXrecord
280
     1
102
RTVSPropertyOp0
 70
     1
102
RTVSPropertyOp1
 70
     1
102
RTVSPropertyOp2
 70
     1
102
RTVSPropertyOp3
 70
     1
102
RTVSPropertyOp4
 70
     1
102
RTVSPropertyOp5
 70
     1
102
RTVSPropertyOp6
 70
     1
102
RTVSPropertyOp7
 70
     1
102
RTVSPropertyOp8
 70
     1
102
RTVSPropertyOp9
 70
     1
102
RTVSPropertyOp10
 70
     1
102
RTVSPropertyOp11
 70
     1
102
RTVSPropertyOp12
 70
     1
102
RTVSPropertyOp13
 70
     1
102
RTVSPropertyOp14
 70
     1
102
RTVSPropertyOp15
 70
     1
102
RTVSPropertyOp16
 70
     1
102
RTVSPropertyOp17
 70
     1
102
RTVSPropertyOp18
 70
     1
102
RTVSPropertyOp19
 70
     1
102
RTVSPropertyOp20
 70
     1
102
RTVSPropertyOp21
 70
     1
102
RTVSPropertyOp22
 70
     1
102
RTVSPropertyOp23
 70
     1
102
RTVSPropertyOp24
 70
     1
102
RTVSPropertyOp25
 70
     1
102
RTVSPropertyOp26
 70
     1
102
RTVSPropertyOp27
 70
     1
102
RTVSPropertyOp28
 70
     1
102
RTVSPropertyOp29
 70
     1
102
RTVSPropertyOp30
 70
     1
102
RTVSPropertyOp31
 70
     1
102
RTVSPropertyOp32
 70
     1
  0
XRECORD
  5
9ED
102
{ACAD_REACTORS
330
9EC
102
}
330
9EC
100
AcDbXrecord
280
     1
102
RTVSPropertyOp0
 70
     1
102
RTVSPropertyOp1
 70
     1
102
RTVSPropertyOp2
 70
     1
102
RTVSPropertyOp3
 70
     1
102
RTVSPropertyOp4
 70
     1
102
RTVSPropertyOp5
 70
     1
102
RTVSPropertyOp6
 70
     1
102
RTVSPropertyOp7
 70
     1
102
RTVSPropertyOp8
 70
     1
102
RTVSPropertyOp9
 70
     1
102
RTVSPropertyOp10
 70
     1
102
RTVSPropertyOp11
 70
     1
102
RTVSPropertyOp12
 70
     1
102
RTVSPropertyOp13
 70
     1
102
RTVSPropertyOp14
 70
     1
102
RTVSPropertyOp15
 70
     1
102
RTVSPropertyOp16
 70
     1
102
RTVSPropertyOp17
 70
     1
102
RTVSPropertyOp18
 70
     1
102
RTVSPropertyOp19
 70
     1
102
RTVSPropertyOp20
 70
     1
102
RTVSPropertyOp21
 70
     1
102
RTVSPropertyOp22
 70
     1
102
RTVSPropertyOp23
 70
     1
102
RTVSPropertyOp24
 70
     1
102
RTVSPropertyOp25
 70
     1
102
RTVSPropertyOp26
 70
     1
102
RTVSPropertyOp27
 70
     1
102
RTVSPropertyOp28
 70
     1
102
RTVSPropertyOp29
 70
     1
102
RTVSPropertyOp30
 70
     1
102
RTVSPropertyOp31
 70
     1
102
RTVSPropertyOp32
 70
     1
  0
XRECORD
  5
9F5
102
{ACAD_REACTORS
330
9F4
102
}
330
9F4
100
AcDbXrecord
280
     1
102
RTVSPropertyOp0
 70
     1
102
RTVSPropertyOp1
 70
     1
102
RTVSPropertyOp2
 70
     1
102
RTVSPropertyOp3
 70
     1
102
RTVSPropertyOp4
 70
     1
102
RTVSPropertyOp5
 70
     1
102
RTVSPropertyOp6
 70
     1
102
RTVSPropertyOp7
 70
     1
102
RTVSPropertyOp8
 70
     1
102
RTVSPropertyOp9
 70
     1
102
RTVSPropertyOp10
 70
     1
102
RTVSPropertyOp11
 70
     1
102
RTVSPropertyOp12
 70
     1
102
RTVSPropertyOp13
 70
     1
102
RTVSPropertyOp14
 70
     1
102
RTVSPropertyOp15
 70
     1
102
RTVSPropertyOp16
 70
     1
102
RTVSPropertyOp17
 70
     1
102
RTVSPropertyOp18
 70
     1
102
RTVSPropertyOp19
 70
     1
102
RTVSPropertyOp20
 70
     1
102
RTVSPropertyOp21
 70
     1
102
RTVSPropertyOp22
 70
     1
102
RTVSPropertyOp23
 70
     1
102
RTVSPropertyOp24
 70
     1
102
RTVSPropertyOp25
 70
     1
102
RTVSPropertyOp26
 70
     1
102
RTVSPropertyOp27
 70
     1
102
RTVSPropertyOp28
 70
     1
102
RTVSPropertyOp29
 70
     1
102
RTVSPropertyOp30
 70
     1
102
RTVSPropertyOp31
 70
     1
102
RTVSPropertyOp32
 70
     1
  0
XRECORD
  5
A11
102
{ACAD_REACTORS
330
A10
102
}
330
A10
100
AcDbXrecord
280
     1
102
RTVSPropertyOp0
 70
     0
102
RTVSPropertyOp1
 70
     0
102
RTVSPropertyOp2
 70
     0
102
RTVSPropertyOp3
 70
     0
102
RTVSPropertyOp4
 70
     0
102
RTVSPropertyOp5
 70
     0
102
RTVSPropertyOp6
 70
     0
102
RTVSPropertyOp7
 70
     0
102
RTVSPropertyOp8
 70
     0
102
RTVSPropertyOp9
 70
     0
102
RTVSPropertyOp10
 70
     0
102
RTVSPropertyOp11
 70
     0
102
RTVSPropertyOp12
 70
     0
102
RTVSPropertyOp13
 70
     0
102
RTVSPropertyOp14
 70
     2
102
RTVSPropertyOp15
 70
     0
102
RTVSPropertyOp16
 70
     0
102
RTVSPropertyOp17
 70
     0
102
RTVSPropertyOp18
 70
     0
102
RTVSPropertyOp19
 70
     0
102
RTVSPropertyOp20
 70
     0
102
RTVSPropertyOp21
 70
     0
102
RTVSPropertyOp22
 70
     0
102
RTVSPropertyOp23
 70
     0
102
RTVSPropertyOp24
 70
     0
102
RTVSPropertyOp25
 70
     0
102
RTVSPropertyOp26
 70
     0
102
RTVSPropertyOp27
 70
     0
102
RTVSPropertyOp28
 70
     0
102
RTVSPropertyOp29
 70
     0
102
RTVSPropertyOp30
 70
     0
102
RTVSPropertyOp31
 70
     0
102
RTVSPropertyOp32
 70
     0
  0
XRECORD
  5
A01
102
{ACAD_REACTORS
330
A00
102
}
330
A00
100
AcDbXrecord
280
     1
102
RTVSPropertyOp0
 70
     1
102
RTVSPropertyOp1
 70
     1
102
RTVSPropertyOp2
 70
     1
102
RTVSPropertyOp3
 70
     1
102
RTVSPropertyOp4
 70
     1
102
RTVSPropertyOp5
 70
     1
102
RTVSPropertyOp6
 70
     1
102
RTVSPropertyOp7
 70
     1
102
RTVSPropertyOp8
 70
     1
102
RTVSPropertyOp9
 70
     1
102
RTVSPropertyOp10
 70
     1
102
RTVSPropertyOp11
 70
     1
102
RTVSPropertyOp12
 70
     1
102
RTVSPropertyOp13
 70
     1
102
RTVSPropertyOp14
 70
     1
102
RTVSPropertyOp15
 70
     1
102
RTVSPropertyOp16
 70
     1
102
RTVSPropertyOp17
 70
     1
102
RTVSPropertyOp18
 70
     1
102
RTVSPropertyOp19
 70
     1
102
RTVSPropertyOp20
 70
     1
102
RTVSPropertyOp21
 70
     1
102
RTVSPropertyOp22
 70
     1
102
RTVSPropertyOp23
 70
     1
102
RTVSPropertyOp24
 70
     1
102
RTVSPropertyOp25
 70
     1
102
RTVSPropertyOp26
 70
     1
102
RTVSPropertyOp27
 70
     1
102
RTVSPropertyOp28
 70
     1
102
RTVSPropertyOp29
 70
     1
102
RTVSPropertyOp30
 70
     1
102
RTVSPropertyOp31
 70
     1
102
RTVSPropertyOp32
 70
     1
  0
XRECORD
  5
A13
102
{ACAD_REACTORS
330
A12
102
}
330
A12
100
AcDbXrecord
280
     1
102
RTVSPropertyOp0
 70
     0
102
RTVSPropertyOp1
 70
     0
102
RTVSPropertyOp2
 70
     0
102
RTVSPropertyOp3
 70
     0
102
RTVSPropertyOp4
 70
     0
102
RTVSPropertyOp5
 70
     0
102
RTVSPropertyOp6
 70
     0
102
RTVSPropertyOp7
 70
     0
102
RTVSPropertyOp8
 70
     0
102
RTVSPropertyOp9
 70
     0
102
RTVSPropertyOp10
 70
     0
102
RTVSPropertyOp11
 70
     0
102
RTVSPropertyOp12
 70
     0
102
RTVSPropertyOp13
 70
     0
102
RTVSPropertyOp14
 70
     2
102
RTVSPropertyOp15
 70
     0
102
RTVSPropertyOp16
 70
     0
102
RTVSPropertyOp17
 70
     0
102
RTVSPropertyOp18
 70
     0
102
RTVSPropertyOp19
 70
     0
102
RTVSPropertyOp20
 70
     0
102
RTVSPropertyOp21
 70
     0
102
RTVSPropertyOp22
 70
     0
102
RTVSPropertyOp23
 70
     0
102
RTVSPropertyOp24
 70
     0
102
RTVSPropertyOp25
 70
     0
102
RTVSPropertyOp26
 70
     0
102
RTVSPropertyOp27
 70
     0
102
RTVSPropertyOp28
 70
     0
102
RTVSPropertyOp29
 70
     0
102
RTVSPropertyOp30
 70
     0
102
RTVSPropertyOp31
 70
     0
102
RTVSPropertyOp32
 70
     0
  0
XRECORD
  5
9F9
102
{ACAD_REACTORS
330
9F8
102
}
330
9F8
100
AcDbXrecord
280
     1
102
RTVSPropertyOp0
 70
     1
102
RTVSPropertyOp1
 70
     1
102
RTVSPropertyOp2
 70
     1
102
RTVSPropertyOp3
 70
     1
102
RTVSPropertyOp4
 70
     1
102
RTVSPropertyOp5
 70
     1
102
RTVSPropertyOp6
 70
     1
102
RTVSPropertyOp7
 70
     1
102
RTVSPropertyOp8
 70
     1
102
RTVSPropertyOp9
 70
     1
102
RTVSPropertyOp10
 70
     1
102
RTVSPropertyOp11
 70
     1
102
RTVSPropertyOp12
 70
     1
102
RTVSPropertyOp13
 70
     1
102
RTVSPropertyOp14
 70
     1
102
RTVSPropertyOp15
 70
     1
102
RTVSPropertyOp16
 70
     1
102
RTVSPropertyOp17
 70
     1
102
RTVSPropertyOp18
 70
     1
102
RTVSPropertyOp19
 70
     1
102
RTVSPropertyOp20
 70
     1
102
RTVSPropertyOp21
 70
     1
102
RTVSPropertyOp22
 70
     1
102
RTVSPropertyOp23
 70
     1
102
RTVSPropertyOp24
 70
     1
102
RTVSPropertyOp25
 70
     1
102
RTVSPropertyOp26
 70
     1
102
RTVSPropertyOp27
 70
     1
102
RTVSPropertyOp28
 70
     1
102
RTVSPropertyOp29
 70
     1
102
RTVSPropertyOp30
 70
     1
102
RTVSPropertyOp31
 70
     1
102
RTVSPropertyOp32
 70
     1
  0
XRECORD
  5
A0F
102
{ACAD_REACTORS
330
A0E
102
}
330
A0E
100
AcDbXrecord
280
     1
102
RTVSPropertyOp0
 70
     1
102
RTVSPropertyOp1
 70
     1
102
RTVSPropertyOp2
 70
     1
102
RTVSPropertyOp3
 70
     1
102
RTVSPropertyOp4
 70
     1
102
RTVSPropertyOp5
 70
     1
102
RTVSPropertyOp6
 70
     1
102
RTVSPropertyOp7
 70
     1
102
RTVSPropertyOp8
 70
     1
102
RTVSPropertyOp9
 70
     1
102
RTVSPropertyOp10
 70
     1
102
RTVSPropertyOp11
 70
     1
102
RTVSPropertyOp12
 70
     1
102
RTVSPropertyOp13
 70
     1
102
RTVSPropertyOp14
 70
     1
102
RTVSPropertyOp15
 70
     1
102
RTVSPropertyOp16
 70
     1
102
RTVSPropertyOp17
 70
     1
102
RTVSPropertyOp18
 70
     1
102
RTVSPropertyOp19
 70
     1
102
RTVSPropertyOp20
 70
     1
102
RTVSPropertyOp21
 70
     1
102
RTVSPropertyOp22
 70
     1
102
RTVSPropertyOp23
 70
     1
102
RTVSPropertyOp24
 70
     1
102
RTVSPropertyOp25
 70
     1
102
RTVSPropertyOp26
 70
     1
102
RTVSPropertyOp27
 70
     1
102
RTVSPropertyOp28
 70
     1
102
RTVSPropertyOp29
 70
     1
102
RTVSPropertyOp30
 70
     1
102
RTVSPropertyOp31
 70
     1
102
RTVSPropertyOp32
 70
     1
  0
XRECORD
  5
A0D
102
{ACAD_REACTORS
330
A0C
102
}
330
A0C
100
AcDbXrecord
280
     1
102
RTVSPropertyOp0
 70
     1
102
RTVSPropertyOp1
 70
     1
102
RTVSPropertyOp2
 70
     1
102
RTVSPropertyOp3
 70
     1
102
RTVSPropertyOp4
 70
     1
102
RTVSPropertyOp5
 70
     1
102
RTVSPropertyOp6
 70
     1
102
RTVSPropertyOp7
 70
     1
102
RTVSPropertyOp8
 70
     1
102
RTVSPropertyOp9
 70
     1
102
RTVSPropertyOp10
 70
     1
102
RTVSPropertyOp11
 70
     1
102
RTVSPropertyOp12
 70
     1
102
RTVSPropertyOp13
 70
     1
102
RTVSPropertyOp14
 70
     1
102
RTVSPropertyOp15
 70
     1
102
RTVSPropertyOp16
 70
     1
102
RTVSPropertyOp17
 70
     1
102
RTVSPropertyOp18
 70
     1
102
RTVSPropertyOp19
 70
     1
102
RTVSPropertyOp20
 70
     1
102
RTVSPropertyOp21
 70
     1
102
RTVSPropertyOp22
 70
     1
102
RTVSPropertyOp23
 70
     1
102
RTVSPropertyOp24
 70
     1
102
RTVSPropertyOp25
 70
     1
102
RTVSPropertyOp26
 70
     1
102
RTVSPropertyOp27
 70
     1
102
RTVSPropertyOp28
 70
     1
102
RTVSPropertyOp29
 70
     1
102
RTVSPropertyOp30
 70
     1
102
RTVSPropertyOp31
 70
     1
102
RTVSPropertyOp32
 70
     1
  0
XRECORD
  5
A07
102
{ACAD_REACTORS
330
A06
102
}
330
A06
100
AcDbXrecord
280
     1
102
RTVSPropertyOp0
 70
     1
102
RTVSPropertyOp1
 70
     1
102
RTVSPropertyOp2
 70
     1
102
RTVSPropertyOp3
 70
     1
102
RTVSPropertyOp4
 70
     1
102
RTVSPropertyOp5
 70
     1
102
RTVSPropertyOp6
 70
     1
102
RTVSPropertyOp7
 70
     1
102
RTVSPropertyOp8
 70
     1
102
RTVSPropertyOp9
 70
     1
102
RTVSPropertyOp10
 70
     1
102
RTVSPropertyOp11
 70
     1
102
RTVSPropertyOp12
 70
     1
102
RTVSPropertyOp13
 70
     1
102
RTVSPropertyOp14
 70
     1
102
RTVSPropertyOp15
 70
     1
102
RTVSPropertyOp16
 70
     1
102
RTVSPropertyOp17
 70
     1
102
RTVSPropertyOp18
 70
     1
102
RTVSPropertyOp19
 70
     1
102
RTVSPropertyOp20
 70
     1
102
RTVSPropertyOp21
 70
     1
102
RTVSPropertyOp22
 70
     1
102
RTVSPropertyOp23
 70
     1
102
RTVSPropertyOp24
 70
     1
102
RTVSPropertyOp25
 70
     1
102
RTVSPropertyOp26
 70
     1
102
RTVSPropertyOp27
 70
     1
102
RTVSPropertyOp28
 70
     1
102
RTVSPropertyOp29
 70
     1
102
RTVSPropertyOp30
 70
     1
102
RTVSPropertyOp31
 70
     1
102
RTVSPropertyOp32
 70
     1
  0
XRECORD
  5
A09
102
{ACAD_REACTORS
330
A08
102
}
330
A08
100
AcDbXrecord
280
     1
102
RTVSPropertyOp0
 70
     1
102
RTVSPropertyOp1
 70
     1
102
RTVSPropertyOp2
 70
     1
102
RTVSPropertyOp3
 70
     1
102
RTVSPropertyOp4
 70
     1
102
RTVSPropertyOp5
 70
     1
102
RTVSPropertyOp6
 70
     1
102
RTVSPropertyOp7
 70
     1
102
RTVSPropertyOp8
 70
     1
102
RTVSPropertyOp9
 70
     1
102
RTVSPropertyOp10
 70
     1
102
RTVSPropertyOp11
 70
     1
102
RTVSPropertyOp12
 70
     1
102
RTVSPropertyOp13
 70
     1
102
RTVSPropertyOp14
 70
     1
102
RTVSPropertyOp15
 70
     1
102
RTVSPropertyOp16
 70
     1
102
RTVSPropertyOp17
 70
     1
102
RTVSPropertyOp18
 70
     1
102
RTVSPropertyOp19
 70
     1
102
RTVSPropertyOp20
 70
     1
102
RTVSPropertyOp21
 70
     1
102
RTVSPropertyOp22
 70
     1
102
RTVSPropertyOp23
 70
     1
102
RTVSPropertyOp24
 70
     1
102
RTVSPropertyOp25
 70
     1
102
RTVSPropertyOp26
 70
     1
102
RTVSPropertyOp27
 70
     1
102
RTVSPropertyOp28
 70
     1
102
RTVSPropertyOp29
 70
     1
102
RTVSPropertyOp30
 70
     1
102
RTVSPropertyOp31
 70
     1
102
RTVSPropertyOp32
 70
     1
  0
XRECORD
  5
9FF
102
{ACAD_REACTORS
330
9FE
102
}
330
9FE
100
AcDbXrecord
280
     1
102
RTVSPropertyOp0
 70
     1
102
RTVSPropertyOp1
 70
     1
102
RTVSPropertyOp2
 70
     1
102
RTVSPropertyOp3
 70
     1
102
RTVSPropertyOp4
 70
     1
102
RTVSPropertyOp5
 70
     1
102
RTVSPropertyOp6
 70
     1
102
RTVSPropertyOp7
 70
     1
102
RTVSPropertyOp8
 70
     1
102
RTVSPropertyOp9
 70
     1
102
RTVSPropertyOp10
 70
     1
102
RTVSPropertyOp11
 70
     1
102
RTVSPropertyOp12
 70
     1
102
RTVSPropertyOp13
 70
     1
102
RTVSPropertyOp14
 70
     1
102
RTVSPropertyOp15
 70
     1
102
RTVSPropertyOp16
 70
     1
102
RTVSPropertyOp17
 70
     1
102
RTVSPropertyOp18
 70
     1
102
RTVSPropertyOp19
 70
     1
102
RTVSPropertyOp20
 70
     1
102
RTVSPropertyOp21
 70
     1
102
RTVSPropertyOp22
 70
     1
102
RTVSPropertyOp23
 70
     1
102
RTVSPropertyOp24
 70
     1
102
RTVSPropertyOp25
 70
     1
102
RTVSPropertyOp26
 70
     1
102
RTVSPropertyOp27
 70
     1
102
RTVSPropertyOp28
 70
     1
102
RTVSPropertyOp29
 70
     1
102
RTVSPropertyOp30
 70
     1
102
RTVSPropertyOp31
 70
     1
102
RTVSPropertyOp32
 70
     1
  0
XRECORD
  5
9F3
102
{ACAD_REACTORS
330
9F2
102
}
330
9F2
100
AcDbXrecord
280
     1
102
RTVSPropertyOp0
 70
     1
102
RTVSPropertyOp1
 70
     1
102
RTVSPropertyOp2
 70
     1
102
RTVSPropertyOp3
 70
     1
102
RTVSPropertyOp4
 70
     1
102
RTVSPropertyOp5
 70
     1
102
RTVSPropertyOp6
 70
     1
102
RTVSPropertyOp7
 70
     1
102
RTVSPropertyOp8
 70
     1
102
RTVSPropertyOp9
 70
     1
102
RTVSPropertyOp10
 70
     1
102
RTVSPropertyOp11
 70
     1
102
RTVSPropertyOp12
 70
     1
102
RTVSPropertyOp13
 70
     1
102
RTVSPropertyOp14
 70
     1
102
RTVSPropertyOp15
 70
     1
102
RTVSPropertyOp16
 70
     1
102
RTVSPropertyOp17
 70
     1
102
RTVSPropertyOp18
 70
     1
102
RTVSPropertyOp19
 70
     1
102
RTVSPropertyOp20
 70
     1
102
RTVSPropertyOp21
 70
     1
102
RTVSPropertyOp22
 70
     1
102
RTVSPropertyOp23
 70
     1
102
RTVSPropertyOp24
 70
     1
102
RTVSPropertyOp25
 70
     1
102
RTVSPropertyOp26
 70
     1
102
RTVSPropertyOp27
 70
     1
102
RTVSPropertyOp28
 70
     1
102
RTVSPropertyOp29
 70
     1
102
RTVSPropertyOp30
 70
     1
102
RTVSPropertyOp31
 70
     1
102
RTVSPropertyOp32
 70
     1
  0
XRECORD
  5
A0B
102
{ACAD_REACTORS
330
A0A
102
}
330
A0A
100
AcDbXrecord
280
     1
102
RTVSPropertyOp0
 70
     1
102
RTVSPropertyOp1
 70
     1
102
RTVSPropertyOp2
 70
     1
102
RTVSPropertyOp3
 70
     1
102
RTVSPropertyOp4
 70
     1
102
RTVSPropertyOp5
 70
     1
102
RTVSPropertyOp6
 70
     1
102
RTVSPropertyOp7
 70
     1
102
RTVSPropertyOp8
 70
     1
102
RTVSPropertyOp9
 70
     1
102
RTVSPropertyOp10
 70
     1
102
RTVSPropertyOp11
 70
     1
102
RTVSPropertyOp12
 70
     1
102
RTVSPropertyOp13
 70
     1
102
RTVSPropertyOp14
 70
     1
102
RTVSPropertyOp15
 70
     1
102
RTVSPropertyOp16
 70
     1
102
RTVSPropertyOp17
 70
     1
102
RTVSPropertyOp18
 70
     1
102
RTVSPropertyOp19
 70
     1
102
RTVSPropertyOp20
 70
     1
102
RTVSPropertyOp21
 70
     1
102
RTVSPropertyOp22
 70
     1
102
RTVSPropertyOp23
 70
     1
102
RTVSPropertyOp24
 70
     1
102
RTVSPropertyOp25
 70
     1
102
RTVSPropertyOp26
 70
     1
102
RTVSPropertyOp27
 70
     1
102
RTVSPropertyOp28
 70
     1
102
RTVSPropertyOp29
 70
     1
102
RTVSPropertyOp30
 70
     1
102
RTVSPropertyOp31
 70
     1
102
RTVSPropertyOp32
 70
     1
  0
ENDSEC
  0
EOF
